  0
SECTION
  2
HEADER
  9
$ACADVER
  1
AC1015
  9
$ACADMAINTVER
 70
    18
  9
$DWGCODEPAGE
  3
ANSI_1252
  9
$INSBASE
 10
0.0
 20
0.0
 30
0.0
  9
$EXTMIN
 10
-6.517638189855006
 20
-92.84422243903884
 30
-0.0015258207003583
  9
$EXTMAX
 10
19.59777883207175
 20
0.0135959268239958
 30
0.0000000349246037
  9
$LIMMIN
 10
0.0
 20
0.0
  9
$LIMMAX
 10
420.0
 20
297.0
  9
$ORTHOMODE
 70
     0
  9
$REGENMODE
 70
     1
  9
$FILLMODE
 70
     1
  9
$QTEXTMODE
 70
     0
  9
$MIRRTEXT
 70
     0
  9
$LTSCALE
 40
1.0
  9
$ATTMODE
 70
     1
  9
$TEXTSIZE
 40
2.5
  9
$TRACEWID
 40
1.0
  9
$TEXTSTYLE
  7
Standard
  9
$CLAYER
  8
0
  9
$CELTYPE
  6
ByLayer
  9
$CECOLOR
 62
   256
  9
$CELTSCALE
 40
1.0
  9
$DISPSILH
 70
     0
  9
$DIMSCALE
 40
1.0
  9
$DIMASZ
 40
2.5
  9
$DIMEXO
 40
0.625
  9
$DIMDLI
 40
3.75
  9
$DIMRND
 40
0.0
  9
$DIMDLE
 40
0.0
  9
$DIMEXE
 40
1.25
  9
$DIMTP
 40
0.0
  9
$DIMTM
 40
0.0
  9
$DIMTXT
 40
2.5
  9
$DIMCEN
 40
2.5
  9
$DIMTSZ
 40
0.0
  9
$DIMTOL
 70
     0
  9
$DIMLIM
 70
     0
  9
$DIMTIH
 70
     0
  9
$DIMTOH
 70
     0
  9
$DIMSE1
 70
     0
  9
$DIMSE2
 70
     0
  9
$DIMTAD
 70
     1
  9
$DIMZIN
 70
     8
  9
$DIMBLK
  1

  9
$DIMASO
 70
     1
  9
$DIMSHO
 70
     1
  9
$DIMPOST
  1

  9
$DIMAPOST
  1

  9
$DIMALT
 70
     0
  9
$DIMALTD
 70
     3
  9
$DIMALTF
 40
0.03937007874016
  9
$DIMLFAC
 40
1.0
  9
$DIMTOFL
 70
     1
  9
$DIMTVP
 40
0.0
  9
$DIMTIX
 70
     0
  9
$DIMSOXD
 70
     0
  9
$DIMSAH
 70
     0
  9
$DIMBLK1
  1

  9
$DIMBLK2
  1

  9
$DIMSTYLE
  2
ISO-25
  9
$DIMCLRD
 70
     0
  9
$DIMCLRE
 70
     0
  9
$DIMCLRT
 70
     0
  9
$DIMTFAC
 40
1.0
  9
$DIMGAP
 40
0.625
  9
$DIMJUST
 70
     0
  9
$DIMSD1
 70
     0
  9
$DIMSD2
 70
     0
  9
$DIMTOLJ
 70
     0
  9
$DIMTZIN
 70
     8
  9
$DIMALTZ
 70
     0
  9
$DIMALTTZ
 70
     0
  9
$DIMUPT
 70
     0
  9
$DIMDEC
 70
     2
  9
$DIMTDEC
 70
     2
  9
$DIMALTU
 70
     2
  9
$DIMALTTD
 70
     3
  9
$DIMTXSTY
  7
Standard
  9
$DIMAUNIT
 70
     0
  9
$DIMADEC
 70
     0
  9
$DIMALTRND
 40
0.0
  9
$DIMAZIN
 70
     0
  9
$DIMDSEP
 70
    44
  9
$DIMATFIT
 70
     3
  9
$DIMFRAC
 70
     0
  9
$DIMLDRBLK
  1

  9
$DIMLUNIT
 70
     2
  9
$DIMLWD
 70
    -2
  9
$DIMLWE
 70
    -2
  9
$DIMTMOVE
 70
     0
  9
$LUNITS
 70
     2
  9
$LUPREC
 70
     4
  9
$SKETCHINC
 40
1.0
  9
$FILLETRAD
 40
0.0
  9
$AUNITS
 70
     0
  9
$AUPREC
 70
     0
  9
$MENU
  1
.
  9
$ELEVATION
 40
0.0
  9
$PELEVATION
 40
0.0
  9
$THICKNESS
 40
0.0
  9
$LIMCHECK
 70
     0
  9
$CHAMFERA
 40
0.0
  9
$CHAMFERB
 40
0.0
  9
$CHAMFERC
 40
0.0
  9
$CHAMFERD
 40
0.0
  9
$SKPOLY
 70
     0
  9
$TDCREATE
 40
2460476.646099537
  9
$TDUCREATE
 40
2460476.354432870
  9
$TDUPDATE
 40
2460476.692083333
  9
$TDUUPDATE
 40
2460476.400416667
  9
$TDINDWG
 40
0.0017939815
  9
$TDUSRTIMER
 40
0.0017939815
  9
$USRTIMER
 70
     1
  9
$ANGBASE
 50
0.0
  9
$ANGDIR
 70
     0
  9
$PDMODE
 70
     0
  9
$PDSIZE
 40
0.0
  9
$PLINEWID
 40
0.0
  9
$SPLFRAME
 70
     0
  9
$SPLINETYPE
 70
     6
  9
$SPLINESEGS
 70
     8
  9
$HANDSEED
  5
3A0C
  9
$SURFTAB1
 70
     6
  9
$SURFTAB2
 70
     6
  9
$SURFTYPE
 70
     6
  9
$SURFU
 70
     6
  9
$SURFV
 70
     6
  9
$UCSBASE
  2

  9
$UCSNAME
  2

  9
$UCSORG
 10
0.0
 20
0.0
 30
0.0
  9
$UCSXDIR
 10
1.0
 20
0.0
 30
0.0
  9
$UCSYDIR
 10
0.0
 20
1.0
 30
0.0
  9
$UCSORTHOREF
  2

  9
$UCSORTHOVIEW
 70
     0
  9
$UCSORGTOP
 10
0.0
 20
0.0
 30
0.0
  9
$UCSORGBOTTOM
 10
0.0
 20
0.0
 30
0.0
  9
$UCSORGLEFT
 10
0.0
 20
0.0
 30
0.0
  9
$UCSORGRIGHT
 10
0.0
 20
0.0
 30
0.0
  9
$UCSORGFRONT
 10
0.0
 20
0.0
 30
0.0
  9
$UCSORGBACK
 10
0.0
 20
0.0
 30
0.0
  9
$PUCSBASE
  2

  9
$PUCSNAME
  2

  9
$PUCSORG
 10
0.0
 20
0.0
 30
0.0
  9
$PUCSXDIR
 10
1.0
 20
0.0
 30
0.0
  9
$PUCSYDIR
 10
0.0
 20
1.0
 30
0.0
  9
$PUCSORTHOREF
  2

  9
$PUCSORTHOVIEW
 70
     0
  9
$PUCSORGTOP
 10
0.0
 20
0.0
 30
0.0
  9
$PUCSORGBOTTOM
 10
0.0
 20
0.0
 30
0.0
  9
$PUCSORGLEFT
 10
0.0
 20
0.0
 30
0.0
  9
$PUCSORGRIGHT
 10
0.0
 20
0.0
 30
0.0
  9
$PUCSORGFRONT
 10
0.0
 20
0.0
 30
0.0
  9
$PUCSORGBACK
 10
0.0
 20
0.0
 30
0.0
  9
$USERI1
 70
     0
  9
$USERI2
 70
     0
  9
$USERI3
 70
     0
  9
$USERI4
 70
     0
  9
$USERI5
 70
     0
  9
$USERR1
 40
0.0
  9
$USERR2
 40
0.0
  9
$USERR3
 40
0.0
  9
$USERR4
 40
0.0
  9
$USERR5
 40
0.0
  9
$WORLDVIEW
 70
     1
  9
$SHADEDGE
 70
     3
  9
$SHADEDIF
 70
    70
  9
$TILEMODE
 70
     1
  9
$MAXACTVP
 70
    48
  9
$PINSBASE
 10
0.0
 20
0.0
 30
0.0
  9
$PLIMCHECK
 70
     0
  9
$PEXTMIN
 10
0.0
 20
0.0
 30
0.0
  9
$PEXTMAX
 10
0.0
 20
0.0
 30
0.0
  9
$PLIMMIN
 10
0.0
 20
0.0
  9
$PLIMMAX
 10
12.0
 20
9.0
  9
$UNITMODE
 70
     0
  9
$VISRETAIN
 70
     1
  9
$PLINEGEN
 70
     0
  9
$PSLTSCALE
 70
     1
  9
$TREEDEPTH
 70
  3020
  9
$CMLSTYLE
  2
Standard
  9
$CMLJUST
 70
     0
  9
$CMLSCALE
 40
20.0
  9
$PROXYGRAPHICS
 70
     1
  9
$MEASUREMENT
 70
     1
  9
$CELWEIGHT
370
    -1
  9
$ENDCAPS
280
     0
  9
$JOINSTYLE
280
     0
  9
$LWDISPLAY
290
     0
  9
$INSUNITS
 70
     4
  9
$HYPERLINKBASE
  1

  9
$STYLESHEET
  1

  9
$XEDIT
290
     1
  9
$CEPSNTYPE
380
     0
  9
$PSTYLEMODE
290
     1
  9
$FINGERPRINTGUID
  2
{F9DBAE76-D248-2544-A6C6-CA8F37DA12E5}
  9
$VERSIONGUID
  2
{40BCF077-32ED-C64C-8BA6-10822EBC849A}
  9
$EXTNAMES
290
     1
  9
$PSVPSCALE
 40
0.0
  9
$OLESTARTUP
290
     0
  0
ENDSEC
  0
SECTION
  2
CLASSES
  0
CLASS
  1
ACDBDICTIONARYWDFLT
  2
AcDbDictionaryWithDefault
  3
ObjectDBX Classes
 90
        0
280
     0
281
     0
  0
CLASS
  1
ACDBPLACEHOLDER
  2
AcDbPlaceHolder
  3
ObjectDBX Classes
 90
        0
280
     0
281
     0
  0
CLASS
  1
LAYOUT
  2
AcDbLayout
  3
ObjectDBX Classes
 90
        0
280
     0
281
     0
  0
CLASS
  1
DICTIONARYVAR
  2
AcDbDictionaryVar
  3
ObjectDBX Classes
 90
        0
280
     0
281
     0
  0
CLASS
  1
TABLESTYLE
  2
AcDbTableStyle
  3
ObjectDBX Classes
 90
     4095
280
     0
281
     0
  0
CLASS
  1
MATERIAL
  2
AcDbMaterial
  3
ObjectDBX Classes
 90
     1153
280
     0
281
     0
  0
CLASS
  1
VISUALSTYLE
  2
AcDbVisualStyle
  3
ObjectDBX Classes
 90
     4095
280
     0
281
     0
  0
CLASS
  1
SCALE
  2
AcDbScale
  3
ObjectDBX Classes
 90
     1153
280
     0
281
     0
  0
CLASS
  1
MLEADERSTYLE
  2
AcDbMLeaderStyle
  3
ACDB_MLEADERSTYLE_CLASS
 90
     4095
280
     0
281
     0
  0
CLASS
  1
CELLSTYLEMAP
  2
AcDbCellStyleMap
  3
ObjectDBX Classes
 90
     1152
280
     0
281
     0
  0
CLASS
  1
EXACXREFPANELOBJECT
  2
ExAcXREFPanelObject
  3
EXAC_ESW
 90
    33793
280
     0
281
     0
  0
CLASS
  1
NPOCOLLECTION
  2
AcDbImpNonPersistentObjectsCollection
  3
ObjectDBX Classes
 90
    33921
280
     0
281
     0
  0
CLASS
  1
LAYER_INDEX
  2
AcDbLayerIndex
  3
ObjectDBX Classes
 90
    32768
280
     0
281
     0
  0
CLASS
  1
SPATIAL_INDEX
  2
AcDbSpatialIndex
  3
ObjectDBX Classes
 90
    32768
280
     0
281
     0
  0
CLASS
  1
IDBUFFER
  2
AcDbIdBuffer
  3
ObjectDBX Classes
 90
    32768
280
     0
281
     0
  0
CLASS
  1
ACDBSECTIONVIEWSTYLE
  2
AcDbSectionViewStyle
  3
ObjectDBX Classes
 90
     1025
280
     0
281
     0
  0
CLASS
  1
ACDBDETAILVIEWSTYLE
  2
AcDbDetailViewStyle
  3
ObjectDBX Classes
 90
     1025
280
     0
281
     0
  0
CLASS
  1
XRECORD
  2
AcDbXrecord
  3
ObjectDBX Classes
 90
        0
280
     0
281
     0
  0
ENDSEC
  0
SECTION
  2
TABLES
  0
TABLE
  2
VPORT
  5
8
102
{ACAD_XDICTIONARY
360
391A
102
}
330
0
100
AcDbSymbolTable
 70
     1
  0
VPORT
  5
EA
330
8
100
AcDbSymbolTableRecord
100
AcDbViewportTableRecord
  2
*Active
 70
     0
 10
0.0
 20
0.0
 11
1.0
 21
1.0
 12
6.540070321108373
 22
-46.41531325610742
 13
0.0
 23
0.0
 14
10.0
 24
10.0
 15
10.0
 25
10.0
 16
0.0
 26
0.0
 36
1.0
 17
0.0
 27
0.0
 37
0.0
 40
98.74587474868116
 41
0.9846153846153848
 42
50.0
 43
0.0
 44
0.0
 50
0.0
 51
0.0
 71
     0
 72
  1000
 73
     1
 74
     3
 75
     0
 76
     1
 77
     0
 78
     0
281
     0
 65
     1
110
0.0
120
0.0
130
0.0
111
1.0
121
0.0
131
0.0
112
0.0
122
1.0
132
0.0
 79
     0
146
0.0
1001
ACAD_NAV_VCDISPLAY
1070
     3
  0
ENDTAB
  0
TABLE
  2
LTYPE
  5
5
330
0
100
AcDbSymbolTable
 70
     1
  0
LTYPE
  5
14
330
5
100
AcDbSymbolTableRecord
100
AcDbLinetypeTableRecord
  2
ByBlock
 70
     0
  3

 72
    65
 73
     0
 40
0.0
  0
LTYPE
  5
15
330
5
100
AcDbSymbolTableRecord
100
AcDbLinetypeTableRecord
  2
ByLayer
 70
     0
  3

 72
    65
 73
     0
 40
0.0
  0
LTYPE
  5
16
330
5
100
AcDbSymbolTableRecord
100
AcDbLinetypeTableRecord
  2
Continuous
 70
     0
  3
Solid line
 72
    65
 73
     0
 40
0.0
  0
ENDTAB
  0
TABLE
  2
LAYER
  5
2
102
{ACAD_XDICTIONARY
360
1FF
102
}
330
0
100
AcDbSymbolTable
 70
     1
  0
LAYER
  5
10
102
{ACAD_XDICTIONARY
360
13C
102
}
330
2
100
AcDbSymbolTableRecord
100
AcDbLayerTableRecord
  2
0
 70
     0
 62
     7
  6
Continuous
370
    -3
390
F
  0
ENDTAB
  0
TABLE
  2
STYLE
  5
3
330
0
100
AcDbSymbolTable
 70
     1
  0
STYLE
  5
11
330
3
100
AcDbSymbolTableRecord
100
AcDbTextStyleTableRecord
  2
Standard
 70
     0
 40
0.0
 41
1.0
 50
0.0
 71
     0
 42
2.5
  3
arial_1.ttf
  4

1001
ACAD
1000
Arial
1071
       34
  0
ENDTAB
  0
TABLE
  2
VIEW
  5
6
330
0
100
AcDbSymbolTable
 70
     0
  0
ENDTAB
  0
TABLE
  2
UCS
  5
7
330
0
100
AcDbSymbolTable
 70
     0
  0
ENDTAB
  0
TABLE
  2
APPID
  5
9
330
0
100
AcDbSymbolTable
 70
     8
  0
APPID
  5
12
330
9
100
AcDbSymbolTableRecord
100
AcDbRegAppTableRecord
  2
ACAD
 70
     0
  0
APPID
  5
9E
330
9
100
AcDbSymbolTableRecord
100
AcDbRegAppTableRecord
  2
ACAD_PSEXT
 70
     0
  0
APPID
  5
133
330
9
100
AcDbSymbolTableRecord
100
AcDbRegAppTableRecord
  2
AcadAnnoPO
 70
     0
  0
APPID
  5
134
330
9
100
AcDbSymbolTableRecord
100
AcDbRegAppTableRecord
  2
AcadAnnotative
 70
     0
  0
APPID
  5
135
330
9
100
AcDbSymbolTableRecord
100
AcDbRegAppTableRecord
  2
ACAD_DSTYLE_DIMJAG
 70
     0
  0
APPID
  5
136
330
9
100
AcDbSymbolTableRecord
100
AcDbRegAppTableRecord
  2
ACAD_DSTYLE_DIMTALN
 70
     0
  0
APPID
  5
165
330
9
100
AcDbSymbolTableRecord
100
AcDbRegAppTableRecord
  2
ACAD_MLEADERVER
 70
     0
  0
APPID
  5
217
330
9
100
AcDbSymbolTableRecord
100
AcDbRegAppTableRecord
  2
ACAD_NAV_VCDISPLAY
 70
     0
  0
ENDTAB
  0
TABLE
  2
DIMSTYLE
  5
A
330
0
100
AcDbSymbolTable
 70
     1
100
AcDbDimStyleTable
 71
     0
  0
DIMSTYLE
105
27
330
A
100
AcDbSymbolTableRecord
100
AcDbDimStyleTableRecord
  2
ISO-25
 70
     0
 41
2.5
 42
0.625
 43
3.75
 44
1.25
 73
     0
 74
     0
 77
     1
 78
     8
140
2.5
141
2.5
143
0.03937007874016
147
0.625
171
     3
172
     1
271
     2
272
     2
274
     3
278
    44
283
     0
284
     8
340
11
  0
ENDTAB
  0
TABLE
  2
BLOCK_RECORD
  5
1
330
0
100
AcDbSymbolTable
 70
     4
  0
BLOCK_RECORD
  5
1F
102
{ACAD_XDICTIONARY
360
1CE
102
}
330
1
100
AcDbSymbolTableRecord
100
AcDbBlockTableRecord
  2
*Model_Space
340
22
  0
BLOCK_RECORD
  5
D2
102
{ACAD_XDICTIONARY
360
38CD
102
}
330
1
100
AcDbSymbolTableRecord
100
AcDbBlockTableRecord
  2
*Paper_Space
340
D3
  0
BLOCK_RECORD
  5
D6
102
{ACAD_XDICTIONARY
360
38CF
102
}
330
1
100
AcDbSymbolTableRecord
100
AcDbBlockTableRecord
  2
*Paper_Space0
340
D7
  0
BLOCK_RECORD
  5
3622
330
1
100
AcDbSymbolTableRecord
100
AcDbBlockTableRecord
  2
DSIX442X45T-20-Front
340
0
102
{BLKREFS
331
38C6
102
}
  0
BLOCK_RECORD
  5
3774
330
1
100
AcDbSymbolTableRecord
100
AcDbBlockTableRecord
  2
DSIX442X45T-20-Top
340
0
102
{BLKREFS
331
38C7
102
}
  0
BLOCK_RECORD
  5
3814
330
1
100
AcDbSymbolTableRecord
100
AcDbBlockTableRecord
  2
DSIX442X45T-20-ISO
340
0
102
{BLKREFS
331
38C8
102
}
  0
ENDTAB
  0
ENDSEC
  0
SECTION
  2
BLOCKS
  0
BLOCK
  5
20
330
1F
100
AcDbEntity
  8
0
100
AcDbBlockBegin
  2
*Model_Space
 70
     0
 10
0.0
 20
0.0
 30
0.0
  3
*Model_Space
  1

  0
ENDBLK
  5
21
330
1F
100
AcDbEntity
  8
0
100
AcDbBlockEnd
  0
BLOCK
  5
D4
330
D2
100
AcDbEntity
 67
     1
  8
0
100
AcDbBlockBegin
  2
*Paper_Space
 70
     0
 10
0.0
 20
0.0
 30
0.0
  3
*Paper_Space
  1

  0
ENDBLK
  5
D5
330
D2
100
AcDbEntity
 67
     1
  8
0
100
AcDbBlockEnd
  0
BLOCK
  5
D8
330
D6
100
AcDbEntity
 67
     1
  8
0
100
AcDbBlockBegin
  2
*Paper_Space0
 70
     0
 10
0.0
 20
0.0
 30
0.0
  3
*Paper_Space0
  1

  0
ENDBLK
  5
D9
330
D6
100
AcDbEntity
 67
     1
  8
0
100
AcDbBlockEnd
  0
BLOCK
  5
3623
330
3622
100
AcDbEntity
  8
0
100
AcDbBlockBegin
  2
DSIX442X45T-20-Front
 70
     0
 10
0.0
 20
0.0
 30
0.0
  3
DSIX442X45T-20-Front
  1

  0
LINE
  5
3625
330
3622
100
AcDbEntity
  8
0
100
AcDbLine
 10
3.5
 20
0.0
 30
0.0
 11
-3.5
 21
0.0
 31
0.0
  0
LINE
  5
3626
330
3622
100
AcDbEntity
  8
0
100
AcDbLine
 10
1.299999999999999
 20
-21.5
 30
0.0
 11
-1.299999999999999
 21
-21.5
 31
0.0
  0
LINE
  5
3627
330
3622
100
AcDbEntity
  8
0
100
AcDbLine
 10
1.524999999999999
 20
-21.275
 30
0.0
 11
-1.524999999999999
 21
-21.275
 31
0.0
  0
LINE
  5
3628
330
3622
100
AcDbEntity
  8
0
100
AcDbLine
 10
1.484292760879741
 20
-3.854699269900723
 30
0.0
 11
0.3500000000000002
 21
-3.854699269900722
 31
0.0
  0
LINE
  5
3629
330
3622
100
AcDbEntity
  8
0
100
AcDbLine
 10
-0.3499999999999999
 20
-3.854699269900722
 30
0.0
 11
-1.484292760879741
 21
-3.854699269900723
 31
0.0
  0
LINE
  5
362A
330
3622
100
AcDbEntity
  8
0
100
AcDbLine
 10
3.482456029873171
 20
-0.5999999999999999
 30
0.0
 11
0.3500000000000009
 21
-0.5999999999999992
 31
0.0
  0
LINE
  5
362B
330
3622
100
AcDbEntity
  8
0
100
AcDbLine
 10
-0.3499999999999988
 20
-0.5999999999999992
 30
0.0
 11
-3.48245602987317
 21
-0.5999999999999999
 31
0.0
  0
LINE
  5
362C
330
3622
100
AcDbEntity
  8
0
100
AcDbLine
 10
1.299999999999997
 20
-38.61029585960745
 30
0.0
 11
-0.4203484811052761
 21
-38.61029585960745
 31
0.0
  0
LINE
  5
362D
330
3622
100
AcDbEntity
  8
0
100
AcDbLine
 10
-1.299999999999997
 20
-21.5
 30
0.0
 11
-1.525000000000001
 21
-21.27499999999999
 31
0.0
  0
LINE
  5
362E
330
3622
100
AcDbEntity
  8
0
100
AcDbLine
 10
1.299999999999997
 20
-21.5
 30
0.0
 11
1.525000000000001
 21
-21.27499999999999
 31
0.0
  0
LINE
  5
362F
330
3622
100
AcDbEntity
  8
0
100
AcDbLine
 10
-1.525
 20
-21.275
 30
0.0
 11
-1.525
 21
-4.48117720585369
 31
0.0
  0
LINE
  5
3630
330
3622
100
AcDbEntity
  8
0
100
AcDbLine
 10
1.525
 20
-21.275
 30
0.0
 11
1.525
 21
-4.48117720585369
 31
0.0
  0
LINE
  5
3631
330
3622
100
AcDbEntity
  8
0
100
AcDbLine
 10
-3.5
 20
-1.226477935952966
 30
0.0
 11
-3.5
 21
0.0
 31
0.0
  0
LINE
  5
3632
330
3622
100
AcDbEntity
  8
0
100
AcDbLine
 10
3.5
 20
-1.226477935952966
 30
0.0
 11
3.5
 21
0.0
 31
0.0
  0
LINE
  5
3633
330
3622
100
AcDbEntity
  8
0
100
AcDbLine
 10
0.0
 20
-45.0
 30
0.0
 11
-0.5423404485527797
 21
-42.33431153106149
 31
0.0
  0
LINE
  5
3634
330
3622
100
AcDbEntity
  8
0
100
AcDbLine
 10
-0.7006633613803998
 20
-41.55612955289714
 30
0.0
 11
-1.173164113497635
 21
-39.23371415894168
 31
0.0
  0
LINE
  5
3635
330
3622
100
AcDbEntity
  8
0
100
AcDbLine
 10
1.289133158619965
 20
-38.66370809142205
 30
0.0
 11
1.299999999999996
 21
-38.61029585960746
 31
0.0
  0
LINE
  5
3636
330
3622
100
AcDbEntity
  8
0
100
AcDbLine
 10
1.299999999999998
 20
-38.61029585960745
 30
0.0
 11
1.299999999999998
 21
-37.88530322406427
 31
0.0
  0
LINE
  5
3637
330
3622
100
AcDbEntity
  8
0
100
AcDbLine
 10
-1.299999999999998
 20
-38.5409881259053
 30
0.0
 11
-1.299999999999998
 21
-36.29717607495916
 31
0.0
  0
LINE
  5
3638
330
3622
100
AcDbEntity
  8
0
100
AcDbLine
 10
-1.299999999999998
 20
-35.23133458071907
 30
0.0
 11
-1.299999999999998
 21
-33.19717607495916
 31
0.0
  0
LINE
  5
3639
330
3622
100
AcDbEntity
  8
0
100
AcDbLine
 10
-1.299999999999998
 20
-32.13133458071907
 30
0.0
 11
-1.299999999999998
 21
-30.09717607495915
 31
0.0
  0
LINE
  5
363A
330
3622
100
AcDbEntity
  8
0
100
AcDbLine
 10
-1.299999999999998
 20
-29.03133458071906
 30
0.0
 11
-1.299999999999998
 21
-26.99717607495915
 31
0.0
  0
LINE
  5
363B
330
3622
100
AcDbEntity
  8
0
100
AcDbLine
 10
-1.299999999999998
 20
-25.93133458071907
 30
0.0
 11
-1.299999999999998
 21
-23.88208288628104
 31
0.0
  0
LINE
  5
363C
330
3622
100
AcDbEntity
  8
0
100
AcDbLine
 10
-1.299999999999998
 20
-22.90106434216158
 30
0.0
 11
-1.299999999999998
 21
-21.5
 31
0.0
  0
LINE
  5
363D
330
3622
100
AcDbEntity
  8
0
100
AcDbLine
 10
1.299999999999998
 20
-37.00231252733326
 30
0.0
 11
1.299999999999998
 21
-34.88925713849584
 31
0.0
  0
LINE
  5
363E
330
3622
100
AcDbEntity
  8
0
100
AcDbLine
 10
1.299999999999998
 20
-33.82341564425576
 30
0.0
 11
1.299999999999998
 21
-31.78925713849584
 31
0.0
  0
LINE
  5
363F
330
3622
100
AcDbEntity
  8
0
100
AcDbLine
 10
1.299999999999998
 20
-30.72341564425576
 30
0.0
 11
1.299999999999998
 21
-28.68925713849585
 31
0.0
  0
LINE
  5
3640
330
3622
100
AcDbEntity
  8
0
100
AcDbLine
 10
1.299999999999998
 20
-27.62341564425576
 30
0.0
 11
1.299999999999998
 21
-25.58925713849584
 31
0.0
  0
LINE
  5
3641
330
3622
100
AcDbEntity
  8
0
100
AcDbLine
 10
1.299999999999998
 20
-24.52341564425575
 30
0.0
 11
1.299999999999998
 21
-22.17681715178217
 31
0.0
  0
LINE
  5
3642
330
3622
100
AcDbEntity
  8
0
100
AcDbLine
 10
1.299999999999998
 20
-21.80006904081453
 30
0.0
 11
1.299999999999998
 21
-21.5
 31
0.0
  0
SPLINE
  5
3643
330
3622
100
AcDbEntity
  8
0
100
AcDbSpline
210
0.0
220
0.0
230
1.0
 70
     8
 71
     3
 72
    17
 73
    13
 74
     0
 42
0.000000001
 43
0.0000000001
 40
1.418115877383924
 40
1.418115877383924
 40
1.418115877383924
 40
1.418115877383924
 40
2.553449081692271
 40
2.553449081692271
 40
2.553449081692271
 40
3.722726375294743
 40
3.722726375294743
 40
3.722726375294743
 40
4.890293930863474
 40
4.890293930863474
 40
4.890293930863474
 40
5.147292416328155
 40
5.147292416328155
 40
5.147292416328155
 40
5.147292416328155
 10
1.95363502156783
 20
-37.30996633007199
 30
0.0
 10
2.034863283497229
 20
-37.49668335131142
 30
0.0
 10
1.651389443046072
 20
-37.68340037255086
 30
0.0
 10
1.041869266924506
 20
-37.8701173937903
 30
0.0
 10
0.4141257117928593
 20
-38.0624168636163
 30
0.0
 10
-0.4150397531706007
 20
-38.25471633344232
 30
0.0
 10
-0.9750491491548819
 20
-38.44701580326833
 30
0.0
 10
-1.534239689450435
 20
-38.6390340893929
 30
0.0
 10
-1.796789909199278
 20
-38.83105237551747
 30
0.0
 10
-1.64813242641293
 20
-39.02307066164204
 30
0.0
 10
-1.615410766970729
 20
-39.06533666028183
 30
0.0
 10
-1.563514179433513
 20
-39.10760265892162
 30
0.0
 10
-1.496031908832276
 20
-39.14986865756142
 30
0.0
  0
SPLINE
  5
3644
330
3622
100
AcDbEntity
  8
0
100
AcDbSpline
210
0.0
220
0.0
230
1.0
 70
     8
 71
     3
 72
    12
 73
     8
 74
     0
 42
0.000000001
 43
0.0000000001
 40
0.0
 40
0.0
 40
0.0
 40
0.0
 40
0.0573452090777494
 40
0.0573452090777494
 40
0.1133100462992979
 40
0.1133100462992979
 40
0.1669733265100566
 40
0.1669733265100566
 40
0.1669733265100566
 40
0.1669733265100566
 10
-0.4203484811052747
 20
-38.61029585960745
 30
0.0
 10
-0.5841108069085262
 20
-38.67898573343894
 30
0.0
 10
-0.7311299579271693
 20
-38.74783930990297
 30
0.0
 10
-0.9691352766340866
 20
-38.88740810524467
 30
0.0
 10
-1.058743818740348
 20
-38.95652498326366
 30
0.0
 10
-1.167097919766083
 20
-39.09549171722564
 30
0.0
 10
-1.187406658447328
 20
-39.16371179133263
 30
0.0
 10
-1.173164134459473
 20
-39.23371410793817
 30
0.0
  0
SPLINE
  5
3645
330
3622
100
AcDbEntity
  8
0
100
AcDbSpline
210
0.0
220
0.0
230
1.0
 70
     8
 71
     3
 72
    14
 73
    10
 74
     0
 42
0.000000001
 43
0.0000000001
 40
0.2899960579116639
 40
0.2899960579116639
 40
0.2899960579116639
 40
0.2899960579116639
 40
0.3402338994842801
 40
0.3402338994842801
 40
0.3969395493983269
 40
0.3969395493983269
 40
0.4375917529565409
 40
0.4375917529565409
 40
0.4782439565147544
 40
0.4782439565147544
 40
0.4782439565147544
 40
0.4782439565147544
 10
1.11943760021813
 20
-38.00463756280594
 30
0.0
 10
1.039022730298468
 20
-38.05855453782853
 30
0.0
 10
0.9343296439601081
 20
-38.11208346005942
 30
0.0
 10
0.6705000559190779
 20
-38.22710301575988
 30
0.0
 10
0.5090783354824849
 20
-38.2874503954185
 30
0.0
 10
0.2123623437830839
 20
-38.39216043335219
 30
0.0
 10
0.0842368340112552
 20
-38.43564493529263
 30
0.0
 10
-0.1721364312295968
 20
-38.52308921687555
 30
0.0
 10
-0.2989785068892634
 20
-38.56657371881599
 30
0.0
 10
-0.4203484811052769
 20
-38.61029585960745
 30
0.0
  0
SPLINE
  5
3646
330
3622
100
AcDbEntity
  8
0
100
AcDbSpline
210
0.0
220
0.0
230
1.0
 70
     8
 71
     3
 72
    20
 73
    16
 74
     0
 42
0.000000001
 43
0.0000000001
 40
0.0626754246579678
 40
0.0626754246579678
 40
0.0626754246579678
 40
0.0626754246579678
 40
0.1193926424992095
 40
0.1193926424992095
 40
0.1790889637488143
 40
0.1790889637488143
 40
0.2387852849984191
 40
0.2387852849984191
 40
0.2984816062480238
 40
0.2984816062480238
 40
0.3581779274976284
 40
0.3581779274976284
 40
0.4178742487472333
 40
0.4178742487472333
 40
0.4183432755932933
 40
0.4183432755932933
 40
0.4183432755932933
 40
0.4183432755932933
 10
-1.052856771075822
 20
-38.36935550582236
 30
0.0
 10
-0.9506526072947853
 20
-38.2964957107041
 30
0.0
 10
-0.8210535222017288
 20
-38.22432521245758
 30
0.0
 10
-0.5145429316043448
 20
-38.07462175524996
 30
0.0
 10
-0.3390401441224361
 20
-37.9987027940303
 30
0.0
 10
0.0254464452191121
 20
-37.84516832126302
 30
0.0
 10
0.2103300201744708
 20
-37.76924936004338
 30
0.0
 10
0.5609691136511774
 20
-37.6157148872761
 30
0.0
 10
0.7227801802041744
 20
-37.53979592605644
 30
0.0
 10
0.9980228043662673
 20
-37.38626145328917
 30
0.0
 10
1.108358069146503
 20
-37.31034249206951
 30
0.0
 10
1.259889870911378
 20
-37.15680801930223
 30
0.0
 10
1.299381777907922
 20
-37.08088905808259
 30
0.0
 10
1.299997600262564
 20
-37.00351867071731
 30
0.0
 10
1.300000000085231
 20
-37.00291557197246
 30
0.0
 10
1.30000000023021
 20
-37.00231252464475
 30
0.0
  0
SPLINE
  5
3647
330
3622
100
AcDbEntity
  8
0
100
AcDbSpline
210
0.0
220
0.0
230
1.0
 70
     8
 71
     3
 72
     8
 73
     4
 74
     0
 42
0.000000001
 43
0.0000000001
 40
0.0
 40
0.0
 40
0.0
 40
0.0
 40
0.0802929274697664
 40
0.0802929274697664
 40
0.0802929274697664
 40
0.0802929274697664
 10
1.793824782646964
 20
-37.57201461889255
 30
0.0
 10
1.566675021352908
 20
-37.71314617460505
 30
0.0
 10
1.340619286434303
 20
-37.85634045752748
 30
0.0
 10
1.119437603807005
 20
-38.00463732967251
 30
0.0
  0
SPLINE
  5
3648
330
3622
100
AcDbEntity
  8
0
100
AcDbSpline
210
0.0
220
0.0
230
1.0
 70
     8
 71
     3
 72
     8
 73
     4
 74
     0
 42
0.000000001
 43
0.0000000001
 40
0.0278925341386831
 40
0.0278925341386831
 40
0.0278925341386831
 40
0.0278925341386831
 40
0.0703639542136619
 40
0.0703639542136619
 40
0.0703639542136619
 40
0.0703639542136619
 10
-1.143234450599752
 20
-39.38082315197182
 30
0.0
 10
-1.260456080105817
 20
-39.30253614871983
 30
0.0
 10
-1.379185231982642
 20
-39.22576365002323
 30
0.0
 10
-1.498402259805664
 20
-39.14986865756142
 30
0.0
  0
SPLINE
  5
3649
330
3622
100
AcDbEntity
  8
0
100
AcDbSpline
210
0.0
220
0.0
230
1.0
 70
     8
 71
     3
 72
     8
 73
     4
 74
     0
 42
0.000000001
 43
0.0000000001
 40
0.0
 40
0.0
 40
0.0
 40
0.0
 40
0.0572732349777273
 40
0.0572732349777273
 40
0.0572732349777273
 40
0.0572732349777273
 10
-1.523120085437654
 20
-38.68978367494995
 30
0.0
 10
-1.364129948584915
 20
-38.5853220655758
 30
0.0
 10
-1.206568935181744
 20
-38.47893316738317
 30
0.0
 10
-1.052856756633956
 20
-38.36935558502542
 30
0.0
  0
SPLINE
  5
364A
330
3622
100
AcDbEntity
  8
0
100
AcDbSpline
210
0.0
220
0.0
230
1.0
 70
     8
 71
     3
 72
    10
 73
     6
 74
     0
 42
0.000000001
 43
0.0000000001
 40
-0.1044680806805188
 40
-0.1044680806805188
 40
-0.1044680806805188
 40
-0.1044680806805188
 40
-0.0540049185076246
 40
-0.0540049185076246
 40
-0.0245838895216527
 40
-0.0245838895216527
 40
-0.0245838895216527
 40
-0.0245838895216527
 10
1.953635021567831
 20
-37.30996633007199
 30
0.0
 10
1.814989907787524
 20
-37.22072552395702
 30
0.0
 10
1.674418725262631
 20
-37.12842125401358
 30
0.0
 10
1.45861017307328
 20
-36.98171159420869
 30
0.0
 10
1.378947513474751
 20
-36.92645417390475
 30
0.0
 10
1.299999856825902
 20
-36.87012478867006
 30
0.0
  0
SPLINE
  5
364B
330
3622
100
AcDbEntity
  8
0
100
AcDbSpline
210
0.0
220
0.0
230
1.0
 70
     8
 71
     3
 72
     8
 73
     4
 74
     0
 42
0.000000001
 43
0.0000000001
 40
2.134232733041555
 40
2.134232733041555
 40
2.134232733041555
 40
2.134232733041555
 40
2.296623994976155
 40
2.296623994976155
 40
2.296623994976155
 40
2.296623994976155
 10
1.289132919380651
 20
-38.66370816796249
 30
0.0
 10
1.177054325620078
 20
-39.21457013006314
 30
0.0
 10
1.050694547299813
 20
-39.77821415260308
 30
0.0
 10
0.9202993762258182
 20
-40.34599920224763
 30
0.0
  0
SPLINE
  5
364C
330
3622
100
AcDbEntity
  8
0
100
AcDbSpline
210
0.0
220
0.0
230
1.0
 70
     8
 71
     3
 72
    10
 73
     6
 74
     0
 42
0.000000001
 43
0.0000000001
 40
-0.050767596960006
 40
-0.050767596960006
 40
-0.050767596960006
 40
-0.050767596960006
 40
-0.0252324285000553
 40
-0.0252324285000553
 40
-0.0002590135614559
 40
-0.0002590135614559
 40
-0.0002590135614559
 40
-0.0002590135614559
 10
1.377664625642491
 20
-40.57044368406831
 30
0.0
 10
1.302630771245352
 20
-40.53155220996262
 30
0.0
 10
1.224996329561814
 20
-40.49198377682277
 30
0.0
 10
1.074862385103599
 20
-40.4177965532526
 30
0.0
 10
0.99626881082497
 20
-40.38011088517182
 30
0.0
 10
0.9202993762258182
 20
-40.34599920224763
 30
0.0
  0
SPLINE
  5
364D
330
3622
100
AcDbEntity
  8
0
100
AcDbSpline
210
0.0
220
0.0
230
1.0
 70
     8
 71
     3
 72
    10
 73
     6
 74
     0
 42
0.000000001
 43
0.0000000001
 40
2.361564659435809
 40
2.361564659435809
 40
2.361564659435809
 40
2.361564659435809
 40
2.552974478438972
 40
2.552974478438972
 40
2.7477475869462
 40
2.7477475869462
 40
2.7477475869462
 40
2.7477475869462
 10
0.762657202827246
 20
-41.02859530874593
 30
0.0
 10
0.6072512277353244
 20
-41.7001516353161
 30
0.0
 10
0.4520109556199249
 20
-42.372818873743
 30
0.0
 10
0.1793980994038024
 20
-43.7052707243784
 30
0.0
 10
0.0586104020621707
 20
-44.36379006392657
 30
0.0
 10
0.0
 20
-45.0
 30
0.0
  0
ELLIPSE
  5
364E
330
3622
100
AcDbEntity
  8
0
100
AcDbEllipse
 10
0.0
 20
-6.994299426916274
 30
0.0
 11
-0.0000000000000007
 21
-2.513122221062584
 31
0.0
210
0.0
220
0.0
230
1.0
 40
0.6068148963145964
 41
2.910020292007265
 42
3.373165015172318
  0
LINE
  5
364F
330
3622
100
AcDbEntity
  8
0
100
AcDbLine
 10
-1.484292760879741
 20
-3.854699269900723
 30
0.0
 11
-1.48429276087974
 21
-4.54826065974958
 31
0.0
  0
LINE
  5
3650
330
3622
100
AcDbEntity
  8
0
100
AcDbLine
 10
1.48429276087974
 20
-4.548260659749582
 30
0.0
 11
1.484292760879741
 21
-3.854699269900723
 31
0.0
  0
LINE
  5
3651
330
3622
100
AcDbEntity
  8
0
100
AcDbLine
 10
0.3500000000000011
 20
-0.5999999999999992
 30
0.0
 11
0.3500000000000011
 21
-1.255389503934208
 31
0.0
  0
LINE
  5
3652
330
3622
100
AcDbEntity
  8
0
100
AcDbLine
 10
0.3500000000000011
 20
-1.255389503934208
 30
0.0
 11
0.3500000000000004
 21
-4.548260659749579
 31
0.0
  0
LINE
  5
3653
330
3622
100
AcDbEntity
  8
0
100
AcDbLine
 10
3.48245602987317
 20
-1.255389503934208
 30
0.0
 11
3.5
 21
-1.226477935952965
 31
0.0
  0
LINE
  5
3654
330
3622
100
AcDbEntity
  8
0
100
AcDbLine
 10
3.48245602987317
 20
-1.255389503934209
 30
0.0
 11
1.48429276087974
 21
-4.548260659749582
 31
0.0
  0
SPLINE
  5
3655
330
3622
100
AcDbEntity
  8
0
100
AcDbSpline
210
0.0
220
0.0
230
1.0
 70
    12
 71
     2
 72
     6
 73
     3
 74
     0
 42
0.000000001
 43
0.0000000001
 40
0.0
 40
0.0
 40
0.0
 40
0.3819135332074239
 40
0.3819135332074239
 40
0.3819135332074239
 10
1.484292760879741
 20
-3.854699269900723
 30
0.0
 41
1.0
 10
2.090700519134482
 20
-2.882045574555263
 30
0.0
 41
1.089871223951879
 10
3.482456029873169
 20
-0.6000000000000002
 30
0.0
 41
1.0
  0
LINE
  5
3656
330
3622
100
AcDbEntity
  8
0
100
AcDbLine
 10
3.48245602987317
 20
-1.255389503934209
 30
0.0
 11
3.482456029873169
 21
-0.6
 31
0.0
  0
LINE
  5
3657
330
3622
100
AcDbEntity
  8
0
100
AcDbLine
 10
-0.3499999999999988
 20
-1.255389503934208
 30
0.0
 11
-0.3499999999999995
 21
-4.548260659749582
 31
0.0
  0
LINE
  5
3658
330
3622
100
AcDbEntity
  8
0
100
AcDbLine
 10
-0.3499999999999988
 20
-1.255389503934208
 30
0.0
 11
-0.349999999999999
 21
-0.5999999999999992
 31
0.0
  0
SPLINE
  5
3659
330
3622
100
AcDbEntity
  8
0
100
AcDbSpline
210
0.0
220
0.0
230
1.0
 70
    12
 71
     2
 72
     6
 73
     3
 74
     0
 42
0.000000001
 43
0.0000000001
 40
0.0
 40
0.0
 40
0.0
 40
0.3819135332074239
 40
0.3819135332074239
 40
0.3819135332074239
 10
-3.482456029873169
 20
-0.5999999999999999
 30
0.0
 41
1.0
 10
-2.090700519129496
 20
-2.882045574563348
 30
0.0
 41
1.08987122395718
 10
-1.484292760879741
 20
-3.854699269900723
 30
0.0
 41
1.0
  0
LINE
  5
365A
330
3622
100
AcDbEntity
  8
0
100
AcDbLine
 10
-3.482456029873169
 20
-0.5999999999999999
 30
0.0
 11
-3.48245602987317
 21
-1.255389503934209
 31
0.0
  0
LINE
  5
365B
330
3622
100
AcDbEntity
  8
0
100
AcDbLine
 10
-3.48245602987317
 20
-1.255389503934209
 30
0.0
 11
-1.48429276087974
 21
-4.54826065974958
 31
0.0
  0
LINE
  5
365C
330
3622
100
AcDbEntity
  8
0
100
AcDbLine
 10
-3.5
 20
-1.226477935952965
 30
0.0
 11
-3.48245602987317
 21
-1.255389503934208
 31
0.0
  0
ELLIPSE
  5
365D
330
3622
100
AcDbEntity
  8
0
100
AcDbEllipse
 10
0.0
 20
-6.994299426916274
 30
0.0
 11
-0.0000000000000016
 21
-5.76782149096331
 31
0.0
210
0.0
220
0.0
230
1.0
 40
0.6068148963145963
 41
3.041425232428231
 42
3.241760074751351
  0
SPLINE
  5
365E
330
3622
100
AcDbEntity
  8
0
100
AcDbSpline
210
0.0
220
0.0
230
1.0
 70
     8
 71
     3
 72
    17
 73
    13
 74
     0
 42
0.000000001
 43
0.0000000001
 40
1.184327351287547
 40
1.184327351287547
 40
1.184327351287547
 40
1.184327351287547
 40
2.246609347304438
 40
2.246609347304438
 40
2.246609347304438
 40
3.367539326779596
 40
3.367539326779596
 40
3.367539326779596
 40
4.486988671613384
 40
4.486988671613384
 40
4.486988671613384
 40
5.098857955892031
 40
5.098857955892031
 40
5.098857955892031
 40
5.098857955892031
 10
-1.944766834902656
 20
-36.0259720477988
 30
0.0
 10
-2.221167227854758
 20
-35.85126903615439
 30
0.0
 10
-2.10356099030111
 20
-35.67656602450999
 30
0.0
 10
-1.63841714154092
 20
-35.50186301286559
 30
0.0
 10
-1.147592966040666
 20
-35.31751474753578
 30
0.0
 10
-0.2942460347049008
 20
-35.13316648220596
 30
0.0
 10
0.4704610542823776
 20
-34.94881821687615
 30
0.0
 10
1.234158042882309
 20
-34.76471345687916
 30
0.0
 10
1.871744750201384
 20
-34.58060869688217
 30
0.0
 10
2.046879906820694
 20
-34.39650393688518
 30
0.0
 10
2.142605384196892
 20
-34.2958758483955
 30
0.0
 10
2.097623827533422
 20
-34.19524775990582
 30
0.0
 10
1.937378852980724
 20
-34.09461967141613
 30
0.0
  0
SPLINE
  5
365F
330
3622
100
AcDbEntity
  8
0
100
AcDbSpline
210
0.0
220
0.0
230
1.0
 70
     8
 71
     3
 72
    20
 73
    16
 74
     0
 42
0.000000001
 43
0.0000000001
 40
7.467512658467134
 40
7.467512658467134
 40
7.467512658467134
 40
7.467512658467134
 40
7.837203894020857
 40
7.837203894020857
 40
7.837203894020857
 40
8.948265939366692
 40
8.948265939366692
 40
8.948265939366692
 40
10.08762854713642
 40
10.08762854713642
 40
10.08762854713642
 40
11.22252781260302
 40
11.22252781260302
 40
11.22252781260302
 40
11.38204326307162
 40
11.38204326307162
 40
11.38204326307162
 40
11.38204326307162
 10
-1.939520271097383
 20
-32.92597204779879
 30
0.0
 10
-2.038863335315858
 20
-32.86517258732413
 30
0.0
 10
-2.095362835053062
 20
-32.80437312684946
 30
0.0
 10
-2.099704439747416
 20
-32.7435736663748
 30
0.0
 10
-2.112752604615502
 20
-32.56084828255627
 30
0.0
 10
-1.654336331218435
 20
-32.37812289873774
 30
0.0
 10
-0.9632333623699063
 20
-32.1953975149192
 30
0.0
 10
-0.254526873724109
 20
-32.00801781755189
 30
0.0
 10
0.6636043782771705
 20
-31.82063812018457
 30
0.0
 10
1.292269227826397
 20
-31.63325842281726
 30
0.0
 10
1.918471343915399
 20
-31.44661276720654
 30
0.0
 10
2.224903200542313
 20
-31.25996711159583
 30
0.0
 10
2.04614844724102
 20
-31.07332145598511
 30
0.0
 10
2.021023622629793
 20
-31.04708752779545
 30
0.0
 10
1.986501403609104
 20
-31.02085359960579
 30
0.0
 10
1.943561304109884
 20
-30.99461967141613
 30
0.0
  0
SPLINE
  5
3660
330
3622
100
AcDbEntity
  8
0
100
AcDbSpline
210
0.0
220
0.0
230
1.0
 70
     8
 71
     3
 72
    17
 73
    13
 74
     0
 42
0.000000001
 43
0.0000000001
 40
13.75069796564672
 40
13.75069796564672
 40
13.75069796564672
 40
13.75069796564672
 40
14.60386484502568
 40
14.60386484502568
 40
14.60386484502568
 40
15.7242729621939
 40
15.7242729621939
 40
15.7242729621939
 40
16.8418459196635
 40
16.8418459196635
 40
16.8418459196635
 40
17.6652285702512
 40
17.6652285702512
 40
17.6652285702512
 40
17.6652285702512
 10
-1.940615872101219
 20
-29.82597204779879
 30
0.0
 10
-2.159202563402216
 20
-29.68566013079215
 30
0.0
 10
-2.144135288501987
 20
-29.54534821378553
 30
0.0
 10
-1.875423687423507
 20
-29.4050362967789
 30
0.0
 10
-1.522542362207564
 20
-29.22077385698037
 30
0.0
 10
-0.7499325324648786
 20
-29.03651141718185
 30
0.0
 10
0.0342488394670495
 20
-28.85224897738332
 30
0.0
 10
0.8164458635635407
 20
-28.66845280825464
 30
0.0
 10
1.571703221779122
 20
-28.48465663912595
 30
0.0
 10
1.902730073286527
 20
-28.30086046999726
 30
0.0
 10
2.146617297461135
 20
-28.16544687047021
 30
0.0
 10
2.151530440483551
 20
-28.03003327094317
 30
0.0
 10
1.940253106779137
 20
-27.89461967141612
 30
0.0
  0
SPLINE
  5
3661
330
3622
100
AcDbEntity
  8
0
100
AcDbSpline
210
0.0
220
0.0
230
1.0
 70
     8
 71
     3
 72
    20
 73
    16
 74
     0
 42
0.000000001
 43
0.0000000001
 40
20.0338832728263
 40
20.0338832728263
 40
20.0338832728263
 40
20.0338832728263
 40
20.2240956626761
 40
20.2240956626761
 40
20.2240956626761
 40
21.34650471094466
 40
21.34650471094466
 40
21.34650471094466
 40
22.46314480494605
 40
22.46314480494605
 40
22.46314480494605
 40
23.59786424686289
 40
23.59786424686289
 40
23.59786424686289
 40
23.94841387743079
 40
23.94841387743079
 40
23.94841387743079
 40
23.94841387743079
 10
-1.94300407359828
 20
-26.72597204779879
 30
0.0
 10
-1.994292676866976
 20
-26.69468969764747
 30
0.0
 10
-2.033723284414447
 20
-26.66340734749616
 30
0.0
 10
-2.059687162730792
 20
-26.63212499734485
 30
0.0
 10
-2.212895331627793
 20
-26.44753348420174
 30
0.0
 10
-1.889928954291635
 20
-26.26294197105862
 30
0.0
 10
-1.261919005927841
 20
-26.07835045791552
 30
0.0
 10
-0.6371369009933435
 20
-25.89470770761343
 30
0.0
 10
0.2586122505894716
 20
-25.71106495731135
 30
0.0
 10
0.9547968297791506
 20
-25.52742220700926
 30
0.0
 10
1.662253226350416
 20
-25.34080612519893
 30
0.0
 10
2.127170166981983
 20
-25.1541900433886
 30
0.0
 10
2.098645436339568
 20
-24.96757396157827
 30
0.0
 10
2.089833272363725
 20
-24.90992253152423
 30
0.0
 10
2.034155812392135
 20
-24.85227110147018
 30
0.0
 10
1.939814166880096
 20
-24.79461967141613
 30
0.0
  0
SPLINE
  5
3662
330
3622
100
AcDbEntity
  8
0
100
AcDbSpline
210
0.0
220
0.0
230
1.0
 70
     8
 71
     3
 72
     8
 73
     4
 74
     0
 42
0.000000001
 43
0.0000000001
 40
26.3170685800059
 40
26.3170685800059
 40
26.3170685800059
 40
26.3170685800059
 40
26.57239300576224
 40
26.57239300576224
 40
26.57239300576224
 40
26.57239300576224
 10
-1.944004100538294
 20
-23.62597204779878
 30
0.0
 10
-2.01169909463264
 20
-23.58398136519919
 30
0.0
 10
-2.058595075422942
 20
-23.54199068259959
 30
0.0
 10
-2.081967030258076
 20
-23.5
 30
0.0
  0
SPLINE
  5
3663
330
3622
100
AcDbEntity
  8
0
100
AcDbSpline
210
0.0
220
0.0
230
1.0
 70
     8
 71
     3
 72
    14
 73
    10
 74
     0
 42
0.000000001
 43
0.0000000001
 40
2.152323737903124
 40
2.152323737903124
 40
2.152323737903124
 40
2.152323737903124
 40
2.532545977075433
 40
2.532545977075433
 40
2.532545977075433
 40
3.79582237523937
 40
3.79582237523937
 40
3.79582237523937
 40
4.712388980384689
 40
4.712388980384689
 40
4.712388980384689
 40
4.712388980384689
 10
-1.08077110687209
 20
-35.0865014619897
 30
0.0
 10
-0.992434841548216
 20
-35.02397007152404
 30
0.0
 10
-0.878849115572075
 20
-34.96143868105838
 30
0.0
 10
-0.7437115532537091
 20
-34.89890729059271
 30
0.0
 10
-0.2947212644325577
 20
-34.69114871789162
 30
0.0
 10
0.3567258044373286
 20
-34.48339014519053
 30
0.0
 10
0.7911126535313623
 20
-34.27563157248945
 30
0.0
 10
1.106280798976459
 20
-34.12489292974488
 30
0.0
 10
1.289266861877432
 20
-33.97415428700032
 30
0.0
 10
1.294872524280908
 20
-33.82341564425576
 30
0.0
  0
SPLINE
  5
3664
330
3622
100
AcDbEntity
  8
0
100
AcDbSpline
210
0.0
220
0.0
230
1.0
 70
     8
 71
     3
 72
    14
 73
    10
 74
     0
 42
0.000000001
 43
0.0000000001
 40
8.43550904508271
 40
8.43550904508271
 40
8.43550904508271
 40
8.43550904508271
 40
8.905395890937752
 40
8.905395890937752
 40
8.905395890937752
 40
10.19008331181415
 40
10.19008331181415
 40
10.19008331181415
 40
10.99557428756427
 40
10.99557428756427
 40
10.99557428756427
 40
10.99557428756427
 10
-1.079226640450396
 20
-31.9865014619897
 30
0.0
 10
-0.9695102445709661
 20
-31.90922382063762
 30
0.0
 10
-0.8220127006393687
 20
-31.83194617928555
 30
0.0
 10
-0.6452469287709477
 20
-31.75466853793347
 30
0.0
 10
-0.1619629944279026
 20
-31.54338870612766
 30
0.0
 10
0.4991101245922731
 20
-31.33210887432186
 30
0.0
 10
0.9005844134698898
 20
-31.12082904251605
 30
0.0
 10
1.152306280930854
 20
-30.98835790976262
 30
0.0
 10
1.288896857781274
 20
-30.85588677700919
 30
0.0
 10
1.292402044759046
 20
-30.72341564425575
 30
0.0
  0
SPLINE
  5
3665
330
3622
100
AcDbEntity
  8
0
100
AcDbSpline
210
0.0
220
0.0
230
1.0
 70
     8
 71
     3
 72
    14
 73
    10
 74
     0
 42
0.000000001
 43
0.0000000001
 40
14.71869435226229
 40
14.71869435226229
 40
14.71869435226229
 40
14.71869435226229
 40
15.27708395735274
 40
15.27708395735274
 40
15.27708395735274
 40
16.53824548918786
 40
16.53824548918786
 40
16.53824548918786
 40
17.27875959474386
 40
17.27875959474386
 40
17.27875959474386
 40
17.27875959474386
 10
-1.079198374481648
 20
-28.8865014619897
 30
0.0
 10
-0.9474354216547382
 20
-28.79466864730773
 30
0.0
 10
-0.7628234727830254
 20
-28.70283583262573
 30
0.0
 10
-0.5429708756965335
 20
-28.61100301794375
 30
0.0
 10
-0.0464185839062546
 20
-28.40359225638721
 30
0.0
 10
0.5908503266824857
 20
-28.19618149483068
 30
0.0
 10
0.9595583477907176
 20
-27.98877073327414
 30
0.0
 10
1.176052019354733
 20
-27.86698570360135
 30
0.0
 10
1.289152992086156
 20
-27.74520067392855
 30
0.0
 10
1.291094803100656
 20
-27.62341564425576
 30
0.0
  0
SPLINE
  5
3666
330
3622
100
AcDbEntity
  8
0
100
AcDbSpline
210
0.0
220
0.0
230
1.0
 70
     8
 71
     3
 72
    14
 73
    10
 74
     0
 42
0.000000001
 43
0.0000000001
 40
21.00187965944188
 40
21.00187965944188
 40
21.00187965944188
 40
21.00187965944188
 40
21.65608136634263
 40
21.65608136634263
 40
21.65608136634263
 40
22.95055368781548
 40
22.95055368781548
 40
22.95055368781548
 40
23.56194490192345
 40
23.56194490192345
 40
23.56194490192345
 40
23.56194490192345
 10
-1.079373412041905
 20
-25.78650146198971
 30
0.0
 10
-0.9235266345769604
 20
-25.67891137870955
 30
0.0
 10
-0.6952045989327203
 20
-25.57132129542939
 30
0.0
 10
-0.4274824343421403
 20
-25.46373121214923
 30
0.0
 10
0.1022608057804072
 20
-25.25084215453592
 30
0.0
 10
0.7425228562047165
 20
-25.03795309692261
 30
0.0
 10
1.064505316687008
 20
-24.8250640393093
 30
0.0
 10
1.216580601859391
 20
-24.72451457429145
 30
0.0
 10
1.291830281750125
 20
-24.6239651092736
 30
0.0
 10
1.291413222524923
 20
-24.52341564425575
 30
0.0
  0
SPLINE
  5
3667
330
3622
100
AcDbEntity
  8
0
100
AcDbSpline
210
0.0
220
0.0
230
1.0
 70
     8
 71
     3
 72
    14
 73
    10
 74
     0
 42
0.000000001
 43
0.0000000001
 40
-22.98041749081521
 40
-22.98041749081521
 40
-22.98041749081521
 40
-22.98041749081521
 40
-22.77657063052286
 40
-22.77657063052286
 40
-22.77657063052286
 40
-21.51514550706927
 40
-21.51514550706927
 40
-21.51514550706927
 40
-20.42035224833366
 40
-20.42035224833366
 40
-20.42035224833366
 40
-20.42035224833366
 10
1.083928493689189
 20
-25.73409025722521
 30
0.0
 10
1.036699834796865
 20
-25.76761493385614
 30
0.0
 10
0.9817206008567262
 20
-25.80113961048708
 30
0.0
 10
0.9192607777310406
 20
-25.83466428711801
 30
0.0
 10
0.5327530337107866
 20
-26.04211839898055
 30
0.0
 10
-0.1098472983751103
 20
-26.24957251084309
 30
0.0
 10
-0.5956993095030702
 20
-26.45702662270564
 30
0.0
 10
-1.01737119207169
 20
-26.63707644012347
 30
0.0
 10
-1.292436375060928
 20
-26.81712625754131
 30
0.0
 10
-1.298402858586721
 20
-26.99717607495915
 30
0.0
  0
SPLINE
  5
3668
330
3622
100
AcDbEntity
  8
0
100
AcDbSpline
210
0.0
220
0.0
230
1.0
 70
     8
 71
     3
 72
    14
 73
    10
 74
     0
 42
0.000000001
 43
0.0000000001
 40
-16.69723218363562
 40
-16.69723218363562
 40
-16.69723218363562
 40
-16.69723218363562
 40
-16.38230969394808
 40
-16.38230969394808
 40
-16.38230969394808
 40
-15.10328488916657
 40
-15.10328488916657
 40
-15.10328488916657
 40
-14.13716694115407
 40
-14.13716694115407
 40
-14.13716694115407
 40
-14.13716694115407
 10
1.081653676403999
 20
-28.83409025722521
 30
0.0
 10
1.008826542115709
 20
-28.88588244384728
 30
0.0
 10
0.9182990025868891
 20
-28.93767463046934
 30
0.0
 10
0.8117030135931745
 20
-28.98946681709141
 30
0.0
 10
0.3787745360225536
 20
-29.19981537444347
 30
0.0
 10
-0.2830784843857883
 20
-29.41016393179553
 30
0.0
 10
-0.7390467665371712
 20
-29.62051248914759
 30
0.0
 10
-1.083464747692848
 20
-29.77940035108478
 30
0.0
 10
-1.289163461385957
 20
-29.93828821302196
 30
0.0
 10
-1.295506601391845
 20
-30.09717607495915
 30
0.0
  0
SPLINE
  5
3669
330
3622
100
AcDbEntity
  8
0
100
AcDbSpline
210
0.0
220
0.0
230
1.0
 70
     8
 71
     3
 72
    14
 73
    10
 74
     0
 42
0.000000001
 43
0.0000000001
 40
-10.41404687645604
 40
-10.41404687645604
 40
-10.41404687645604
 40
-10.41404687645604
 40
-10.03414751657437
 40
-10.03414751657437
 40
-10.03414751657437
 40
-8.737553217021678
 40
-8.737553217021678
 40
-8.737553217021678
 40
-7.853981633974481
 40
-7.853981633974481
 40
-7.853981633974481
 40
-7.853981633974481
 10
1.080829313597957
 20
-31.93409025722521
 30
0.0
 10
0.992541914822654
 20
-31.99656854692791
 30
0.0
 10
0.8790481752427808
 20
-32.05904683663062
 30
0.0
 10
0.7440557851402013
 20
-32.12152512633331
 30
0.0
 10
0.2833275450491416
 20
-32.33476316469051
 30
0.0
 10
-0.3903913644521201
 20
-32.54800120304773
 30
0.0
 10
-0.824712626824072
 20
-32.76123924140493
 30
0.0
 10
-1.120683329053313
 20
-32.90655151925633
 30
0.0
 10
-1.288396862868975
 20
-33.05186379710774
 30
0.0
 10
-1.29353727055316
 20
-33.19717607495916
 30
0.0
  0
SPLINE
  5
366A
330
3622
100
AcDbEntity
  8
0
100
AcDbSpline
210
0.0
220
0.0
230
1.0
 70
     8
 71
     3
 72
    14
 73
    10
 74
     0
 42
0.000000001
 43
0.0000000001
 40
-4.130861569276451
 40
-4.130861569276451
 40
-4.130861569276451
 40
-4.130861569276451
 40
-3.621839317946758
 40
-3.621839317946758
 40
-3.621839317946758
 40
-2.35030253060492
 40
-2.35030253060492
 40
-2.35030253060492
 40
-1.570796326794894
 40
-1.570796326794894
 40
-1.570796326794894
 40
-1.570796326794894
 10
1.07881196290051
 20
-35.03409025722521
 30
0.0
 10
0.959544288493125
 20
-35.11780411158286
 30
0.0
 10
0.796222272490772
 20
-35.2015179659405
 30
0.0
 10
0.6005973369804684
 20
-35.28523182029816
 30
0.0
 10
0.1119265541749159
 20
-35.49434889749442
 30
0.0
 10
-0.5373259702151772
 20
-35.70346597469068
 30
0.0
 10
-0.9246389464301191
 20
-35.91258305188695
 30
0.0
 10
-1.162078296027564
 20
-36.04078072624435
 30
0.0
 10
-1.288831262394687
 20
-36.16897840060175
 30
0.0
 10
-1.291704794897216
 20
-36.29717607495916
 30
0.0
  0
SPLINE
  5
366B
330
3622
100
AcDbEntity
  8
0
100
AcDbSpline
210
0.0
220
0.0
230
1.0
 70
     8
 71
     3
 72
     8
 73
     4
 74
     0
 42
0.000000001
 43
0.0000000001
 40
0.0
 40
0.0
 40
0.0
 40
0.0
 40
0.102715017983499
 40
0.102715017983499
 40
0.102715017983499
 40
0.102715017983499
 10
-1.945116066041916
 20
-35.64461967141613
 30
0.0
 10
-1.654824479336272
 20
-35.4636742511539
 30
0.0
 10
-1.365812115077668
 20
-35.27961385061428
 30
0.0
 10
-1.08631200166442
 20
-35.0865014619897
 30
0.0
  0
SPLINE
  5
366C
330
3622
100
AcDbEntity
  8
0
100
AcDbSpline
210
0.0
220
0.0
230
1.0
 70
     8
 71
     3
 72
     8
 73
     4
 74
     0
 42
0.000000001
 43
0.0000000001
 40
0.0
 40
0.0
 40
0.0
 40
0.0
 40
0.102715017983499
 40
0.102715017983499
 40
0.102715017983499
 40
0.102715017983499
 10
-1.945116066041916
 20
-32.54461967141613
 30
0.0
 10
-1.654824479336271
 20
-32.3636742511539
 30
0.0
 10
-1.365812115077669
 20
-32.17961385061428
 30
0.0
 10
-1.08631200166442
 20
-31.9865014619897
 30
0.0
  0
SPLINE
  5
366D
330
3622
100
AcDbEntity
  8
0
100
AcDbSpline
210
0.0
220
0.0
230
1.0
 70
     8
 71
     3
 72
     8
 73
     4
 74
     0
 42
0.000000001
 43
0.0000000001
 40
0.0
 40
0.0
 40
0.0
 40
0.0
 40
0.102715017983499
 40
0.102715017983499
 40
0.102715017983499
 40
0.102715017983499
 10
-1.945116066041916
 20
-29.44461967141613
 30
0.0
 10
-1.654824479336272
 20
-29.26367425115389
 30
0.0
 10
-1.365812115077669
 20
-29.07961385061428
 30
0.0
 10
-1.086312001664421
 20
-28.8865014619897
 30
0.0
  0
SPLINE
  5
366E
330
3622
100
AcDbEntity
  8
0
100
AcDbSpline
210
0.0
220
0.0
230
1.0
 70
     8
 71
     3
 72
     8
 73
     4
 74
     0
 42
0.000000001
 43
0.0000000001
 40
0.0
 40
0.0
 40
0.0
 40
0.0
 40
0.102715017983499
 40
0.102715017983499
 40
0.102715017983499
 40
0.102715017983499
 10
-1.945116066041917
 20
-26.34461967141613
 30
0.0
 10
-1.654824479336272
 20
-26.1636742511539
 30
0.0
 10
-1.365812115077669
 20
-25.97961385061428
 30
0.0
 10
-1.086312001664421
 20
-25.7865014619897
 30
0.0
  0
SPLINE
  5
366F
330
3622
100
AcDbEntity
  8
0
100
AcDbSpline
210
0.0
220
0.0
230
1.0
 70
     8
 71
     3
 72
     8
 73
     4
 74
     0
 42
0.000000001
 43
0.0000000001
 40
0.0259693006477678
 40
0.0259693006477678
 40
0.0259693006477678
 40
0.0259693006477678
 40
0.1027150179834988
 40
0.1027150179834988
 40
0.1027150179834988
 40
0.1027150179834988
 10
1.299999999999998
 20
-33.68133458071907
 30
0.0
 10
1.512035105145481
 20
-33.8224862236997
 30
0.0
 10
1.728218513029452
 20
-33.95942243980126
 30
0.0
 10
1.945116066041917
 20
-34.09461967141613
 30
0.0
  0
SPLINE
  5
3670
330
3622
100
AcDbEntity
  8
0
100
AcDbSpline
210
0.0
220
0.0
230
1.0
 70
     8
 71
     3
 72
     8
 73
     4
 74
     0
 42
0.000000001
 43
0.0000000001
 40
0.0259693006477679
 40
0.0259693006477679
 40
0.0259693006477679
 40
0.0259693006477679
 40
0.1027150179834987
 40
0.1027150179834987
 40
0.1027150179834987
 40
0.1027150179834987
 10
1.299999999999998
 20
-30.58133458071907
 30
0.0
 10
1.51203510514548
 20
-30.72248622369969
 30
0.0
 10
1.728218513029452
 20
-30.85942243980126
 30
0.0
 10
1.945116066041916
 20
-30.99461967141613
 30
0.0
  0
SPLINE
  5
3671
330
3622
100
AcDbEntity
  8
0
100
AcDbSpline
210
0.0
220
0.0
230
1.0
 70
     8
 71
     3
 72
     8
 73
     4
 74
     0
 42
0.000000001
 43
0.0000000001
 40
0.0259693006477679
 40
0.0259693006477679
 40
0.0259693006477679
 40
0.0259693006477679
 40
0.1027150179834987
 40
0.1027150179834987
 40
0.1027150179834987
 40
0.1027150179834987
 10
1.299999999999998
 20
-27.48133458071907
 30
0.0
 10
1.512035105145481
 20
-27.6224862236997
 30
0.0
 10
1.728218513029452
 20
-27.75942243980126
 30
0.0
 10
1.945116066041916
 20
-27.89461967141612
 30
0.0
  0
SPLINE
  5
3672
330
3622
100
AcDbEntity
  8
0
100
AcDbSpline
210
0.0
220
0.0
230
1.0
 70
     8
 71
     3
 72
     8
 73
     4
 74
     0
 42
0.000000001
 43
0.0000000001
 40
0.0259693006477678
 40
0.0259693006477678
 40
0.0259693006477678
 40
0.0259693006477678
 40
0.1027150179834987
 40
0.1027150179834987
 40
0.1027150179834987
 40
0.1027150179834987
 10
1.299999999999998
 20
-24.38133458071907
 30
0.0
 10
1.512035105145481
 20
-24.5224862236997
 30
0.0
 10
1.728218513029452
 20
-24.65942243980126
 30
0.0
 10
1.945116066041917
 20
-24.79461967141613
 30
0.0
  0
SPLINE
  5
3673
330
3622
100
AcDbEntity
  8
0
100
AcDbSpline
210
0.0
220
0.0
230
1.0
 70
     8
 71
     3
 72
     8
 73
     4
 74
     0
 42
0.000000001
 43
0.0000000001
 40
0.0
 40
0.0
 40
0.0
 40
0.0
 40
0.1027150179834986
 40
0.1027150179834986
 40
0.1027150179834986
 40
0.1027150179834986
 10
1.945116066041913
 20
-34.47597204779879
 30
0.0
 10
1.654824479336268
 20
-34.65691746806102
 30
0.0
 10
1.365812115077663
 20
-34.84097786860063
 30
0.0
 10
1.086312001664415
 20
-35.03409025722521
 30
0.0
  0
SPLINE
  5
3674
330
3622
100
AcDbEntity
  8
0
100
AcDbSpline
210
0.0
220
0.0
230
1.0
 70
     8
 71
     3
 72
     8
 73
     4
 74
     0
 42
0.000000001
 43
0.0000000001
 40
0.0
 40
0.0
 40
0.0
 40
0.0
 40
0.1027150179834986
 40
0.1027150179834986
 40
0.1027150179834986
 40
0.1027150179834986
 10
1.945116066041912
 20
-31.37597204779879
 30
0.0
 10
1.654824479336267
 20
-31.55691746806102
 30
0.0
 10
1.365812115077664
 20
-31.74097786860063
 30
0.0
 10
1.086312001664415
 20
-31.9340902572252
 30
0.0
  0
SPLINE
  5
3675
330
3622
100
AcDbEntity
  8
0
100
AcDbSpline
210
0.0
220
0.0
230
1.0
 70
     8
 71
     3
 72
     8
 73
     4
 74
     0
 42
0.000000001
 43
0.0000000001
 40
0.0
 40
0.0
 40
0.0
 40
0.0
 40
0.1027150179834987
 40
0.1027150179834987
 40
0.1027150179834987
 40
0.1027150179834987
 10
1.945116066041914
 20
-28.27597204779879
 30
0.0
 10
1.654824479336268
 20
-28.45691746806102
 30
0.0
 10
1.365812115077664
 20
-28.64097786860063
 30
0.0
 10
1.086312001664415
 20
-28.83409025722521
 30
0.0
  0
SPLINE
  5
3676
330
3622
100
AcDbEntity
  8
0
100
AcDbSpline
210
0.0
220
0.0
230
1.0
 70
     8
 71
     3
 72
     8
 73
     4
 74
     0
 42
0.000000001
 43
0.0000000001
 40
0.0
 40
0.0
 40
0.0
 40
0.0
 40
0.1027150179834987
 40
0.1027150179834987
 40
0.1027150179834987
 40
0.1027150179834987
 10
1.945116066041914
 20
-25.17597204779879
 30
0.0
 10
1.654824479336268
 20
-25.35691746806102
 30
0.0
 10
1.365812115077664
 20
-25.54097786860062
 30
0.0
 10
1.086312001664415
 20
-25.73409025722521
 30
0.0
  0
SPLINE
  5
3677
330
3622
100
AcDbEntity
  8
0
100
AcDbSpline
210
0.0
220
0.0
230
1.0
 70
     8
 71
     3
 72
     8
 73
     4
 74
     0
 42
0.000000001
 43
0.0000000001
 40
0.0259693006477685
 40
0.0259693006477685
 40
0.0259693006477685
 40
0.0259693006477685
 40
0.1027150179834987
 40
0.1027150179834987
 40
0.1027150179834987
 40
0.1027150179834987
 10
-1.299999999999999
 20
-24.03925713849584
 30
0.0
 10
-1.51203510514548
 20
-23.89810549551521
 30
0.0
 10
-1.72821851302945
 20
-23.76116927941365
 30
0.0
 10
-1.945116066041914
 20
-23.62597204779878
 30
0.0
  0
SPLINE
  5
3678
330
3622
100
AcDbEntity
  8
0
100
AcDbSpline
210
0.0
220
0.0
230
1.0
 70
     8
 71
     3
 72
     8
 73
     4
 74
     0
 42
0.000000001
 43
0.0000000001
 40
0.0259693006477685
 40
0.0259693006477685
 40
0.0259693006477685
 40
0.0259693006477685
 40
0.1027150179834987
 40
0.1027150179834987
 40
0.1027150179834987
 40
0.1027150179834987
 10
-1.299999999999998
 20
-27.13925713849584
 30
0.0
 10
-1.51203510514548
 20
-26.99810549551522
 30
0.0
 10
-1.72821851302945
 20
-26.86116927941365
 30
0.0
 10
-1.945116066041914
 20
-26.72597204779879
 30
0.0
  0
SPLINE
  5
3679
330
3622
100
AcDbEntity
  8
0
100
AcDbSpline
210
0.0
220
0.0
230
1.0
 70
     8
 71
     3
 72
     8
 73
     4
 74
     0
 42
0.000000001
 43
0.0000000001
 40
0.0259693006477686
 40
0.0259693006477686
 40
0.0259693006477686
 40
0.0259693006477686
 40
0.1027150179834987
 40
0.1027150179834987
 40
0.1027150179834987
 40
0.1027150179834987
 10
-1.299999999999998
 20
-30.23925713849585
 30
0.0
 10
-1.512035105145479
 20
-30.09810549551522
 30
0.0
 10
-1.728218513029449
 20
-29.96116927941365
 30
0.0
 10
-1.945116066041912
 20
-29.82597204779878
 30
0.0
  0
SPLINE
  5
367A
330
3622
100
AcDbEntity
  8
0
100
AcDbSpline
210
0.0
220
0.0
230
1.0
 70
     8
 71
     3
 72
     8
 73
     4
 74
     0
 42
0.000000001
 43
0.0000000001
 40
0.0259693006477685
 40
0.0259693006477685
 40
0.0259693006477685
 40
0.0259693006477685
 40
0.1027150179834984
 40
0.1027150179834984
 40
0.1027150179834984
 40
0.1027150179834984
 10
-1.299999999999998
 20
-33.33925713849584
 30
0.0
 10
-1.51203510514548
 20
-33.19810549551521
 30
0.0
 10
-1.72821851302945
 20
-33.06116927941366
 30
0.0
 10
-1.945116066041913
 20
-32.92597204779879
 30
0.0
  0
SPLINE
  5
367B
330
3622
100
AcDbEntity
  8
0
100
AcDbSpline
210
0.0
220
0.0
230
1.0
 70
     8
 71
     3
 72
     8
 73
     4
 74
     0
 42
0.000000001
 43
0.0000000001
 40
0.0259693006477685
 40
0.0259693006477685
 40
0.0259693006477685
 40
0.0259693006477685
 40
0.1027150179834984
 40
0.1027150179834984
 40
0.1027150179834984
 40
0.1027150179834984
 10
-1.299999999999998
 20
-36.43925713849584
 30
0.0
 10
-1.512035105145479
 20
-36.29810549551522
 30
0.0
 10
-1.728218513029449
 20
-36.16116927941366
 30
0.0
 10
-1.945116066041912
 20
-36.02597204779879
 30
0.0
  0
SPLINE
  5
367C
330
3622
100
AcDbEntity
  8
0
100
AcDbSpline
210
0.0
220
0.0
230
1.0
 70
     8
 71
     3
 72
    17
 73
    13
 74
     0
 42
0.000000001
 43
0.0000000001
 40
0.0
 40
0.0
 40
0.0
 40
0.0
 40
1.140855774200599
 40
1.140855774200599
 40
1.140855774200599
 40
2.289013738354336
 40
2.289013738354336
 40
2.289013738354336
 40
3.482874115900787
 40
3.482874115900787
 40
3.482874115900787
 40
3.614051119339682
 40
3.614051119339682
 40
3.614051119339682
 40
3.614051119339682
 10
-2.081967030258077
 20
-23.5
 30
0.0
 10
-2.111244412591901
 20
-23.31237473632041
 30
0.0
 10
-1.639680971131774
 20
-23.12474947264082
 30
0.0
 10
-0.9964114559423732
 20
-22.93712420896123
 30
0.0
 10
-0.3490246138329531
 20
-22.74829802633432
 30
0.0
 10
0.4290039869313912
 20
-22.55947184370742
 30
0.0
 10
0.910494985597967
 20
-22.37064566108051
 30
0.0
 10
1.411151727440091
 20
-22.1743032546175
 30
0.0
 10
1.569078965302816
 20
-21.97796084815449
 30
0.0
 10
1.374806075431949
 20
-21.78161844169148
 30
0.0
 10
1.353460082196921
 20
-21.76004505755695
 30
0.0
 10
1.328348414170825
 20
-21.73847167342242
 30
0.0
 10
1.299900049975223
 20
-21.71689828928789
 30
0.0
  0
SPLINE
  5
367D
330
3622
100
AcDbEntity
  8
0
100
AcDbSpline
210
0.0
220
0.0
230
1.0
 70
     8
 71
     3
 72
    22
 73
    18
 74
     0
 42
0.000000001
 43
0.0000000001
 40
0.0812386047262213
 40
0.0812386047262213
 40
0.0812386047262213
 40
0.0812386047262213
 40
0.110197218791446
 40
0.110197218791446
 40
0.1652958281871691
 40
0.1652958281871691
 40
0.2203944375828921
 40
0.2203944375828921
 40
0.2754930469786151
 40
0.2754930469786151
 40
0.3305916563743382
 40
0.3305916563743382
 40
0.3856902657700613
 40
0.3856902657700613
 40
0.4407888751657844
 40
0.4407888751657844
 40
0.4446054073701849
 40
0.4446054073701849
 40
0.4446054073701849
 40
0.4446054073701849
 10
-1.160883760045595
 20
-22.81190099593457
 30
0.0
 10
-1.119379793617859
 20
-22.78506771904447
 30
0.0
 10
-1.069125928795537
 20
-22.75824184430188
 30
0.0
 10
-0.8999612685270388
 20
-22.67995524394605
 30
0.0
 10
-0.7623248528948123
 20
-22.6291630430358
 30
0.0
 10
-0.4503421507251188
 20
-22.52653098748309
 30
0.0
 10
-0.2792335350180012
 20
-22.47573878657284
 30
0.0
 10
0.0723428839260647
 20
-22.37310673102014
 30
0.0
 10
0.2491621236101698
 20
-22.32231453010989
 30
0.0
 10
0.5832906225389653
 20
-22.2196824745572
 30
0.0
 10
0.7371323879545209
 20
-22.16889027364694
 30
0.0
 10
0.9996021738512448
 20
-22.06625821809424
 30
0.0
 10
1.105506354953703
 20
-22.01546601718399
 30
0.0
 10
1.253732927298262
 20
-21.91283396163129
 30
0.0
 10
1.294517063867185
 20
-21.86204176072103
 30
0.0
 10
1.299828268374068
 20
-21.80717120997653
 30
0.0
 10
1.299999998994832
 20
-21.80361907138003
 30
0.0
 10
1.299999989761743
 20
-21.80006896848155
 30
0.0
  0
LINE
  5
367E
330
3622
100
AcDbEntity
  8
0
100
AcDbLine
 10
-2.081967030258076
 20
-23.5
 30
0.0
 11
-1.299999999999996
 21
-23.95537927575058
 31
0.0
  0
SPLINE
  5
367F
330
3622
100
AcDbEntity
  8
0
100
AcDbSpline
210
0.0
220
0.0
230
1.0
 70
     8
 71
     3
 72
    20
 73
    16
 74
     0
 42
0.000000001
 43
0.0000000001
 40
0.2048360144262053
 40
0.2048360144262053
 40
0.2048360144262053
 40
0.2048360144262053
 40
0.2478061727047103
 40
0.2478061727047103
 40
0.3097577158808878
 40
0.3097577158808878
 40
0.3717092590570654
 40
0.3717092590570654
 40
0.4336608022332431
 40
0.4336608022332431
 40
0.4956123454094205
 40
0.4956123454094205
 40
0.5368462054218628
 40
0.5368462054218628
 40
0.559225506626008
 40
0.559225506626008
 40
0.559225506626008
 40
0.559225506626008
 10
1.009841388533268
 20
-22.38502804492698
 30
0.0
 10
0.9285432795734385
 20
-22.44545135677448
 30
0.0
 10
0.8325541457929304
 20
-22.5056877404054
 30
0.0
 10
0.5696069005105269
 20
-22.65394771146309
 30
0.0
 10
0.3936555955527729
 20
-22.7404851174665
 30
0.0
 10
0.0244600879861177
 20
-22.91556679972928
 30
0.0
 10
-0.1644729576731584
 20
-23.00210420573269
 30
0.0
 10
-0.525139386295805
 20
-23.17718588799547
 30
0.0
 10
-0.6926612077737687
 20
-23.26372329399888
 30
0.0
 10
-0.9791436172551993
 20
-23.43880497626166
 30
0.0
 10
-1.09475890282332
 20
-23.52534238226507
 30
0.0
 10
-1.228128543286304
 20
-23.67114887108691
 30
0.0
 10
-1.264989994469135
 20
-23.72911607168362
 30
0.0
 10
-1.294759612771134
 20
-23.81900486790117
 30
0.0
 10
-1.29999989800996
 20
-23.85054010356748
 30
0.0
 10
-1.299999913417162
 20
-23.88208285417872
 30
0.0
  0
SPLINE
  5
3680
330
3622
100
AcDbEntity
  8
0
100
AcDbSpline
210
0.0
220
0.0
230
1.0
 70
     8
 71
     3
 72
     8
 73
     4
 74
     0
 42
0.000000001
 43
0.0000000001
 40
0.0
 40
0.0
 40
0.0
 40
0.0
 40
0.0885918891910219
 40
0.0885918891910219
 40
0.0885918891910219
 40
0.0885918891910219
 10
-1.912145889625777
 20
-23.2799001558633
 30
0.0
 10
-1.65980545017083
 20
-23.12667388533955
 30
0.0
 10
-1.408245763363475
 20
-22.97182949833617
 30
0.0
 10
-1.160884378858978
 20
-22.81190107317077
 30
0.0
  0
SPLINE
  5
3681
330
3622
100
AcDbEntity
  8
0
100
AcDbSpline
210
0.0
220
0.0
230
1.0
 70
     8
 71
     3
 72
     8
 73
     4
 74
     0
 42
0.000000001
 43
0.0000000001
 40
0.0
 40
0.0
 40
0.0
 40
0.0
 40
0.0360086288299362
 40
0.0360086288299362
 40
0.0360086288299362
 40
0.0360086288299362
 10
1.298878453058526
 20
-22.17759903232357
 30
0.0
 10
1.201199026753924
 20
-22.24557990943674
 30
0.0
 10
1.104572904790009
 20
-22.3146190959104
 30
0.0
 10
1.009841629639058
 20
-22.38502723049805
 30
0.0
  0
SPLINE
  5
3682
330
3622
100
AcDbEntity
  8
0
100
AcDbSpline
210
0.0
220
0.0
230
1.0
 70
     8
 71
     3
 72
    18
 73
    14
 74
     0
 42
0.000000001
 43
0.0000000001
 40
0.0679300628837156
 40
0.0679300628837156
 40
0.0679300628837156
 40
0.0679300628837156
 40
0.0841772035049298
 40
0.0841772035049298
 40
0.124598926762099
 40
0.124598926762099
 40
0.163974127357633
 40
0.163974127357633
 40
0.2023659199623209
 40
0.2023659199623209
 40
0.2398538914417403
 40
0.2398538914417403
 40
0.2660935576236794
 40
0.2660935576236794
 40
0.2660935576236794
 40
0.2660935576236794
 10
0.5623826490429376
 20
-41.18105777984452
 30
0.0
 10
0.5269381240802643
 20
-41.20933244519392
 30
0.0
 10
0.4890071109161644
 20
-41.23785982592568
 30
0.0
 10
0.349413565069407
 20
-41.33867648366059
 30
0.0
 10
0.2396015017057445
 20
-41.41099692782312
 30
0.0
 10
0.0195416184529589
 20
-41.55887438452163
 30
0.0
 10
-0.0875461050023885
 20
-41.63226999049125
 30
0.0
 10
-0.2788953475122222
 20
-41.78262502081209
 30
0.0
 10
-0.3608493818593998
 20
-41.85729195444435
 30
0.0
 10
-0.4845291891151725
 20
-42.01060189984184
 30
0.0
 10
-0.5252257933371243
 20
-42.08678925466364
 30
0.0
 10
-0.5540159618516643
 20
-42.22157420060249
 30
0.0
 10
-0.5539346749153414
 20
-42.2772951418247
 30
0.0
 10
-0.5423391993735583
 20
-42.3343017827974
 30
0.0
  0
SPLINE
  5
3683
330
3622
100
AcDbEntity
  8
0
100
AcDbSpline
210
0.0
220
0.0
230
1.0
 70
     8
 71
     3
 72
    14
 73
    10
 74
     0
 42
0.000000001
 43
0.0000000001
 40
0.1219096538423546
 40
0.1219096538423546
 40
0.1219096538423546
 40
0.1219096538423546
 40
1.399546120906669
 40
1.399546120906669
 40
1.399546120906669
 40
2.680930343374184
 40
2.680930343374184
 40
2.680930343374184
 40
3.734724749806046
 40
3.734724749806046
 40
3.734724749806046
 40
3.734724749806046
 10
1.377664625642489
 20
-40.57044368406831
 30
0.0
 10
1.227601655044907
 20
-40.78056391524966
 30
0.0
 10
0.6862570116417534
 20
-40.990684146431
 30
0.0
 10
0.1507090563112809
 20
-41.20080437761234
 30
0.0
 10
-0.3864098488120335
 20
-41.41154096505153
 30
0.0
 10
-0.8713692861123989
 20
-41.62227755249072
 30
0.0
 10
-1.015211761713506
 20
-41.83301413992992
 30
0.0
 10
-1.133506020014787
 20
-42.00632128167568
 30
0.0
 10
-1.020978534470817
 20
-42.17962842342145
 30
0.0
 10
-0.7864374853407213
 20
-42.3529355651672
 30
0.0
  0
SPLINE
  5
3684
330
3622
100
AcDbEntity
  8
0
100
AcDbSpline
210
0.0
220
0.0
230
1.0
 70
     8
 71
     3
 72
    18
 73
    14
 74
     0
 42
0.000000001
 43
0.0000000001
 40
0.2945724974875099
 40
0.2945724974875099
 40
0.2945724974875099
 40
0.2945724974875099
 40
0.3146384564017632
 40
0.3146384564017632
 40
0.3573075434508644
 40
0.3573075434508644
 40
0.4010760595425413
 40
0.4010760595425413
 40
0.4459915586278222
 40
0.4459915586278222
 40
0.4777634970719761
 40
0.4777634970719761
 40
0.4902538628413931
 40
0.4902538628413931
 40
0.4902538628413931
 40
0.4902538628413931
 10
-0.4536725137796011
 20
-41.34106102659309
 30
0.0
 10
-0.4145707660933485
 20
-41.30401991160496
 30
0.0
 10
-0.370789311260452
 20
-41.26734744984012
 30
0.0
 10
-0.2216572954133168
 20
-41.15300041049405
 30
0.0
 10
-0.1054897322454654
 20
-41.07790562555137
 30
0.0
 10
0.1409662837787248
 20
-40.92659757999822
 30
0.0
 10
0.2680269583003318
 20
-40.8525230587681
 30
0.0
 10
0.5104276975653535
 20
-40.70320421690339
 30
0.0
 10
0.6220434237786372
 20
-40.63000269150037
 30
0.0
 10
0.7796976099872209
 20
-40.50563042811724
 30
0.0
 10
0.834369142949858
 20
-40.45508161629152
 30
0.0
 10
0.8931733838457237
 20
-40.38510266766563
 30
0.0
 10
0.907763466379901
 20
-40.36549925184018
 30
0.0
 10
0.9202993762258184
 20
-40.34599920224766
 30
0.0
  0
SPLINE
  5
3685
330
3622
100
AcDbEntity
  8
0
100
AcDbSpline
210
0.0
220
0.0
230
1.0
 70
     8
 71
     3
 72
    10
 73
     6
 74
     0
 42
0.000000001
 43
0.0000000001
 40
0.0391699244884965
 40
0.0391699244884965
 40
0.0391699244884965
 40
0.0391699244884965
 40
0.0444437155105314
 40
0.0444437155105314
 40
0.0775365040287738
 40
0.0775365040287738
 40
0.0775365040287738
 40
0.0775365040287738
 10
-0.491980426528107
 20
-42.58183894740096
 30
0.0
 10
-0.5050340938199884
 20
-42.57096110372907
 30
0.0
 10
-0.5181819272605221
 20
-42.56015068433049
 30
0.0
 10
-0.6143685342966939
 20
-42.48199370075711
 30
0.0
 10
-0.7010538157999309
 20
-42.41667627410934
 30
0.0
 10
-0.7893555348455122
 20
-42.3529355651672
 30
0.0
  0
SPLINE
  5
3686
330
3622
100
AcDbEntity
  8
0
100
AcDbSpline
210
0.0
220
0.0
230
1.0
 70
     8
 71
     3
 72
     8
 73
     4
 74
     0
 42
0.000000001
 43
0.0000000001
 40
0.0
 40
0.0
 40
0.0
 40
0.0
 40
0.0785353615715053
 40
0.0785353615715053
 40
0.0785353615715053
 40
0.0785353615715053
 10
1.19581377121664
 20
-40.73113401055517
 30
0.0
 10
0.9778290315126401
 20
-40.87440841284044
 30
0.0
 10
0.7613742027734015
 20
-41.02234810788227
 30
0.0
 10
0.5623870154902092
 20
-41.18106883132163
 30
0.0
  0
SPLINE
  5
3687
330
3622
100
AcDbEntity
  8
0
100
AcDbSpline
210
0.0
220
0.0
230
1.0
 70
     8
 71
     3
 72
     8
 73
     4
 74
     0
 42
0.000000001
 43
0.0000000001
 40
0.0
 40
0.0
 40
0.0
 40
0.0
 40
0.0561217333463672
 40
0.0561217333463672
 40
0.0561217333463672
 40
0.0561217333463672
 10
-0.8692918567386584
 20
-41.68794141801234
 30
0.0
 10
-0.7230606096940733
 20
-41.57718016448348
 30
0.0
 10
-0.5812582978709278
 20
-41.46195139852711
 30
0.0
 10
-0.453665819671305
 20
-41.34107414110402
 30
0.0
  0
ENDBLK
  5
3624
330
3622
100
AcDbEntity
  8
0
100
AcDbBlockEnd
  0
BLOCK
  5
3775
330
3774
100
AcDbEntity
  8
0
100
AcDbBlockBegin
  2
DSIX442X45T-20-Top
 70
     0
 10
0.0
 20
0.0
 30
0.0
  3
DSIX442X45T-20-Top
  1

  0
LINE
  5
3777
330
3774
100
AcDbEntity
  8
0
100
AcDbLine
 10
2.224482758620691
 20
0.2123999999999977
 30
0.0
 11
2.803347158700586
 21
0.2123999999999983
 31
0.0
  0
LINE
  5
3778
330
3774
100
AcDbEntity
  8
0
100
AcDbLine
 10
2.224482758620691
 20
0.0923999999999976
 30
0.0
 11
2.224482758620691
 21
0.2123999999999977
 31
0.0
  0
LINE
  5
3779
330
3774
100
AcDbEntity
  8
0
100
AcDbLine
 10
2.734065130458713
 20
0.0923999999999987
 30
0.0
 11
2.224482758620691
 21
0.0923999999999976
 31
0.0
  0
LINE
  5
377A
330
3774
100
AcDbEntity
  8
0
100
AcDbLine
 10
2.627370806966226
 20
-0.0924000000000047
 30
0.0
 11
2.734065130458713
 21
0.0923999999999987
 31
0.0
  0
LINE
  5
377B
330
3774
100
AcDbEntity
  8
0
100
AcDbLine
 10
2.224482758620691
 20
-0.0924000000000051
 30
0.0
 11
2.627370806966226
 21
-0.0924000000000047
 31
0.0
  0
LINE
  5
377C
330
3774
100
AcDbEntity
  8
0
100
AcDbLine
 10
2.224482758620691
 20
-0.2124000000000052
 30
0.0
 11
2.224482758620691
 21
-0.0924000000000051
 31
0.0
  0
LINE
  5
377D
330
3774
100
AcDbEntity
  8
0
100
AcDbLine
 10
2.558088778724352
 20
-0.2124000000000044
 30
0.0
 11
2.224482758620691
 21
-0.2124000000000052
 31
0.0
  0
LINE
  5
377E
330
3774
100
AcDbEntity
  8
0
100
AcDbLine
 10
2.409003992252904
 20
-0.4706224399395012
 30
0.0
 11
2.558088778724352
 21
-0.2124000000000044
 31
0.0
  0
LINE
  5
377F
330
3774
100
AcDbEntity
  8
0
100
AcDbLine
 10
2.512927042229859
 20
-0.5306224373018767
 30
0.0
 11
2.409003992252904
 21
-0.4706224399395012
 31
0.0
  0
LINE
  5
3780
330
3774
100
AcDbEntity
  8
0
100
AcDbLine
 10
2.696652841299414
 20
-0.2124000000000042
 30
0.0
 11
2.512927042229859
 21
-0.5306224373018767
 31
0.0
  0
LINE
  5
3781
330
3774
100
AcDbEntity
  8
0
100
AcDbLine
 10
3.27551724137931
 20
-0.2124000000000036
 30
0.0
 11
2.696652841299414
 21
-0.2124000000000042
 31
0.0
  0
LINE
  5
3782
330
3774
100
AcDbEntity
  8
0
100
AcDbLine
 10
3.27551724137931
 20
-0.0924000000000035
 30
0.0
 11
3.27551724137931
 21
-0.2124000000000036
 31
0.0
  0
LINE
  5
3783
330
3774
100
AcDbEntity
  8
0
100
AcDbLine
 10
2.765934869541288
 20
-0.0924000000000046
 30
0.0
 11
3.27551724137931
 21
-0.0924000000000035
 31
0.0
  0
LINE
  5
3784
330
3774
100
AcDbEntity
  8
0
100
AcDbLine
 10
2.872629193033777
 20
0.0923999999999988
 30
0.0
 11
2.765934869541288
 21
-0.0924000000000046
 31
0.0
  0
LINE
  5
3785
330
3774
100
AcDbEntity
  8
0
100
AcDbLine
 10
3.27551724137931
 20
0.0923999999999992
 30
0.0
 11
2.872629193033777
 21
0.0923999999999988
 31
0.0
  0
LINE
  5
3786
330
3774
100
AcDbEntity
  8
0
100
AcDbLine
 10
3.27551724137931
 20
0.2123999999999993
 30
0.0
 11
3.27551724137931
 21
0.0923999999999992
 31
0.0
  0
LINE
  5
3787
330
3774
100
AcDbEntity
  8
0
100
AcDbLine
 10
2.941911221275652
 20
0.2123999999999985
 30
0.0
 11
3.27551724137931
 21
0.2123999999999993
 31
0.0
  0
LINE
  5
3788
330
3774
100
AcDbEntity
  8
0
100
AcDbLine
 10
3.090996007747102
 20
0.4706224399394965
 30
0.0
 11
2.941911221275652
 21
0.2123999999999985
 31
0.0
  0
LINE
  5
3789
330
3774
100
AcDbEntity
  8
0
100
AcDbLine
 10
2.987072957770142
 20
0.5306224373018776
 30
0.0
 11
3.090996007747102
 21
0.4706224399394965
 31
0.0
  0
LINE
  5
378A
330
3774
100
AcDbEntity
  8
0
100
AcDbLine
 10
2.803347158700586
 20
0.2123999999999983
 30
0.0
 11
2.987072957770142
 21
0.5306224373018776
 31
0.0
  0
LINE
  5
378B
330
3774
100
AcDbEntity
  8
0
100
AcDbLine
 10
-2.39100607296043
 20
-0.1086127979783138
 30
0.0
 11
-2.714176809483367
 21
-0.1086127979783134
 31
0.0
  0
LINE
  5
378C
330
3774
100
AcDbEntity
  8
0
100
AcDbLine
 10
-2.391006072960431
 20
-0.2938262153723549
 30
0.0
 11
-2.39100607296043
 21
-0.1086127979783138
 31
0.0
  0
SPLINE
  5
378D
330
3774
100
AcDbEntity
  8
0
100
AcDbSpline
210
0.0
220
0.0
230
1.0
 70
     8
 71
     2
 72
     7
 73
     4
 74
     0
 42
0.000000001
 43
0.0000000001
 40
0.0
 40
0.0
 40
0.0
 40
1.0
 40
2.0
 40
2.0
 40
2.0
 10
-2.711890224083441
 20
-0.3974847535023533
 30
0.0
 10
-2.617378027553148
 20
-0.3974847535023532
 30
0.0
 10
-2.437499976092269
 20
-0.3311737769044867
 30
0.0
 10
-2.391006072960431
 20
-0.293826215372355
 30
0.0
  0
SPLINE
  5
378E
330
3774
100
AcDbEntity
  8
0
100
AcDbSpline
210
0.0
220
0.0
230
1.0
 70
     8
 71
     2
 72
     8
 73
     5
 74
     0
 42
0.000000001
 43
0.0000000001
 40
0.0
 40
0.0
 40
0.0
 40
1.0
 40
2.0
 40
3.0
 40
3.0
 40
3.0
 10
-3.115091449603802
 20
0.0034298866180832
 30
0.0
 10
-3.115091449603802
 20
-0.1299542617109595
 30
0.0
 10
-3.01371949687373
 20
-0.3105945083051475
 30
0.0
 10
-2.820884128146601
 20
-0.3974847535023528
 30
0.0
 10
-2.711890224083441
 20
-0.3974847535023533
 30
0.0
  0
SPLINE
  5
378F
330
3774
100
AcDbEntity
  8
0
100
AcDbSpline
210
0.0
220
0.0
230
1.0
 70
     8
 71
     2
 72
     6
 73
     3
 74
     0
 42
0.000000001
 43
0.0000000001
 40
0.0
 40
0.0
 40
0.0
 40
1.0
 40
1.0
 40
1.0
 10
-3.073170717271817
 20
0.2046494018116096
 30
0.0
 10
-3.115091449603801
 20
0.111661595547935
 30
0.0
 10
-3.115091449603802
 20
0.0034298866180832
 30
0.0
  0
SPLINE
  5
3790
330
3774
100
AcDbEntity
  8
0
100
AcDbSpline
210
0.0
220
0.0
230
1.0
 70
     8
 71
     2
 72
     8
 73
     5
 74
     0
 42
0.000000001
 43
0.0000000001
 40
0.0
 40
0.0
 40
0.0
 40
1.0
 40
2.0
 40
3.0
 40
3.0
 40
3.0
 10
-2.714176809483365
 20
0.4035823316052085
 30
0.0
 10
-2.814024371946819
 20
0.4035823316052091
 30
0.0
 10
-2.958841447275494
 20
0.3487042820069753
 30
0.0
 10
-3.048018277872626
 20
0.2580030611432265
 30
0.0
 10
-3.073170717271817
 20
0.2046494018116096
 30
0.0
  0
SPLINE
  5
3791
330
3774
100
AcDbEntity
  8
0
100
AcDbSpline
210
0.0
220
0.0
230
1.0
 70
     8
 71
     2
 72
     8
 73
     5
 74
     0
 42
0.000000001
 43
0.0000000001
 40
0.0
 40
0.0
 40
0.0
 40
1.0
 40
2.0
 40
3.0
 40
3.0
 40
3.0
 10
-2.396341438893591
 20
0.1871189137455057
 30
0.0
 10
-2.420731683159473
 20
0.263338427076387
 30
0.0
 10
-2.494664611090428
 20
0.3509908674069004
 30
0.0
 10
-2.631097539952705
 20
0.4035823316052087
 30
0.0
 10
-2.714176809483365
 20
0.4035823316052085
 30
0.0
  0
LINE
  5
3792
330
3774
100
AcDbEntity
  8
0
100
AcDbLine
 10
-2.265243875964475
 20
0.2198933044777844
 30
0.0
 11
-2.396341438893591
 21
0.1871189137455057
 31
0.0
  0
SPLINE
  5
3793
330
3774
100
AcDbEntity
  8
0
100
AcDbSpline
210
0.0
220
0.0
230
1.0
 70
     8
 71
     2
 72
     8
 73
     5
 74
     0
 42
0.000000001
 43
0.0000000001
 40
0.0
 40
0.0
 40
0.0
 40
1.0
 40
2.0
 40
3.0
 40
3.0
 40
3.0
 10
-2.714939004616674
 20
0.5171494064682216
 30
0.0
 10
-2.59527436868719
 20
0.5171494064682216
 30
0.0
 10
-2.40320119509337
 20
0.4470274542038108
 30
0.0
 10
-2.293445095896901
 20
0.321265257207856
 30
0.0
 10
-2.265243875964475
 20
0.2198933044777844
 30
0.0
  0
SPLINE
  5
3794
330
3774
100
AcDbEntity
  8
0
100
AcDbSpline
210
0.0
220
0.0
230
1.0
 70
     8
 71
     2
 72
     8
 73
     5
 74
     0
 42
0.000000001
 43
0.0000000001
 40
0.0
 40
0.0
 40
0.0
 40
1.0
 40
2.0
 40
3.0
 40
3.0
 40
3.0
 10
-3.265243890865638
 20
-0.0049542598483133
 30
0.0
 10
-3.265243890865638
 20
0.1413872057469789
 30
0.0
 10
-3.131097547403285
 20
0.3944359900055039
 30
0.0
 10
-2.878810958278068
 20
0.5171494064682221
 30
0.0
 10
-2.714939004616674
 20
0.5171494064682216
 30
0.0
  0
SPLINE
  5
3795
330
3774
100
AcDbEntity
  8
0
100
AcDbSpline
210
0.0
220
0.0
230
1.0
 70
     8
 71
     2
 72
     8
 73
     5
 74
     0
 42
0.000000001
 43
0.0000000001
 40
0.0
 40
0.0
 40
0.0
 40
1.0
 40
2.0
 40
3.0
 40
3.0
 40
3.0
 10
-2.703506077617045
 20
-0.5171493894318368
 30
0.0
 10
-2.865853641011821
 20
-0.5171493894318362
 30
0.0
 10
-3.130335352269979
 20
-0.3906249973025727
 30
0.0
 10
-3.265243890865638
 20
-0.1520579205769141
 30
0.0
 10
-3.265243890865638
 20
-0.0049542598483133
 30
0.0
  0
SPLINE
  5
3796
330
3774
100
AcDbEntity
  8
0
100
AcDbSpline
210
0.0
220
0.0
230
1.0
 70
     8
 71
     2
 72
     7
 73
     4
 74
     0
 42
0.000000001
 43
0.0000000001
 40
0.0
 40
0.0
 40
0.0
 40
1.0
 40
2.0
 40
2.0
 40
2.0
 10
-2.248475583031683
 20
-0.3608993871035311
 30
0.0
 10
-2.355945096828226
 20
-0.4386432907010299
 30
0.0
 10
-2.583841441687561
 20
-0.5171493894318367
 30
0.0
 10
-2.703506077617045
 20
-0.5171493894318368
 30
0.0
  0
LINE
  5
3797
330
3774
100
AcDbEntity
  8
0
100
AcDbLine
 10
-2.248475583031682
 20
0.0095274476845523
 30
0.0
 11
-2.248475583031683
 21
-0.3608993871035311
 31
0.0
  0
LINE
  5
3798
330
3774
100
AcDbEntity
  8
0
100
AcDbLine
 10
-2.714176809483366
 20
0.0095274476845532
 30
0.0
 11
-2.248475583031682
 21
0.0095274476845523
 31
0.0
  0
LINE
  5
3799
330
3774
100
AcDbEntity
  8
0
100
AcDbLine
 10
-2.714176809483367
 20
-0.1086127979783134
 30
0.0
 11
-2.714176809483366
 21
0.0095274476845532
 31
0.0
  0
SPLINE
  5
379A
330
3774
100
AcDbEntity
  8
0
100
AcDbSpline
210
0.0
220
0.0
230
1.0
 70
     8
 71
     3
 72
    12
 73
     8
 74
     0
 42
0.000000001
 43
0.0000000001
 40
0.0701625880555413
 40
0.0701625880555413
 40
0.0701625880555413
 40
0.0701625880555413
 40
0.0876266719572695
 40
0.0876266719572695
 40
0.1050907558589977
 40
0.1050907558589977
 40
0.121349748553623
 40
0.121349748553623
 40
0.121349748553623
 40
0.121349748553623
 10
-1.710400172474266
 20
0.9874999999999987
 30
0.0
 10
-1.681293365971386
 20
1.037914467709063
 30
0.0
 10
-1.638865373917005
 20
1.084176439154848
 30
0.0
 10
-1.537687359965964
 20
1.152007246533187
 30
0.0
 10
-1.478938253707481
 20
1.173575309033163
 30
0.0
 10
-1.368340087023359
 20
1.188649165648808
 30
0.0
 10
-1.31093246180066
 20
1.184828025995694
 30
0.0
 10
-1.257017608299372
 20
1.168994388991213
 30
0.0
  0
SPLINE
  5
379B
330
3774
100
AcDbEntity
  8
0
100
AcDbSpline
210
0.0
220
0.0
230
1.0
 70
     8
 71
     3
 72
    18
 73
    14
 74
     0
 42
0.000000001
 43
0.0000000001
 40
0.028525742117437
 40
0.028525742117437
 40
0.028525742117437
 40
0.028525742117437
 40
0.0417123967319211
 40
0.0417123967319211
 40
0.0621425582382483
 40
0.0621425582382483
 40
0.0825727197445755
 40
0.0825727197445755
 40
0.1030028812509027
 40
0.1030028812509027
 40
0.1234330427572299
 40
0.1234330427572299
 40
0.1366196973717141
 40
0.1366196973717141
 40
0.1366196973717141
 40
0.1366196973717141
 10
-1.257017608299372
 20
1.168994388991213
 30
0.0
 10
-1.212572578662662
 20
1.155941836304516
 30
0.0
 10
-1.167442820982028
 20
1.14761349154439
 30
0.0
 10
-1.056846689319522
 20
1.137519885577465
 30
0.0
 10
-0.9830801185813067
 20
1.141273850507828
 30
0.0
 10
-0.8403966967678588
 20
1.172524294941498
 30
0.0
 10
-0.7714767962263278
 20
1.200035931215611
 30
0.0
 10
-0.6535232037736725
 20
1.268136469570035
 30
0.0
 10
-0.5952374775898474
 20
1.314067036128241
 30
0.0
 10
-0.4968320879240118
 20
1.422009281900743
 30
0.0
 10
-0.4566977735602935
 20
1.484016023644918
 30
0.0
 10
-0.4101410269121879
 20
1.5848418862084
 30
0.0
 10
-0.3947887062056151
 20
1.628089575206528
 30
0.0
 10
-0.383870033598174
 20
1.673106376287219
 30
0.0
  0
SPLINE
  5
379C
330
3774
100
AcDbEntity
  8
0
100
AcDbSpline
210
0.0
220
0.0
230
1.0
 70
     8
 71
     3
 72
    12
 73
     8
 74
     0
 42
0.000000001
 43
0.0000000001
 40
0.0189754275574595
 40
0.0189754275574595
 40
0.0189754275574595
 40
0.0189754275574595
 40
0.0352344202520848
 40
0.0352344202520848
 40
0.052698504153813
 40
0.052698504153813
 40
0.0701625880555413
 40
0.0701625880555413
 40
0.0701625880555413
 40
0.0701625880555413
 10
-0.383870033598174
 20
1.673106376287219
 30
0.0
 10
-0.3706249387277127
 20
1.727714827562892
 30
0.0
 10
-0.345230330127368
 20
1.779341859203242
 30
0.0
 10
-0.2768769040231538
 20
1.867585752855856
 30
0.0
 10
-0.2288238608585237
 20
1.907679940075345
 30
0.0
 10
-0.1194916515341528
 20
1.961387266772234
 30
0.0
 10
-0.0582136130057617
 20
1.974999999999999
 30
0.0
 10
-0.0000000000000009
 20
1.974999999999999
 30
0.0
  0
SPLINE
  5
379D
330
3774
100
AcDbEntity
  8
0
100
AcDbSpline
210
0.0
220
0.0
230
1.0
 70
     8
 71
     3
 72
    12
 73
     8
 74
     0
 42
0.000000001
 43
0.0000000001
 40
0.0701625880555413
 40
0.0701625880555413
 40
0.0701625880555413
 40
0.0701625880555413
 40
0.0876266719572696
 40
0.0876266719572696
 40
0.1050907558589978
 40
0.1050907558589978
 40
0.1213497485536232
 40
0.1213497485536232
 40
0.1213497485536232
 40
0.1213497485536232
 10
-1.710400172474266
 20
-0.9875000000000014
 30
0.0
 10
-1.739506978977146
 20
-0.9370855322909363
 30
0.0
 10
-1.758357025451156
 20
-0.8772108276173852
 30
0.0
 10
-1.766511220824486
 20
-0.7556726935421578
 30
0.0
 10
-1.755815157730634
 20
-0.6940104438226933
 30
0.0
 10
-1.713570417150726
 20
-0.5906926935544341
 30
0.0
 10
-1.681557400528371
 20
-0.5428868015671979
 30
0.0
 10
-1.640887641897545
 20
-0.5041119872960073
 30
0.0
  0
SPLINE
  5
379E
330
3774
100
AcDbEntity
  8
0
100
AcDbSpline
210
0.0
220
0.0
230
1.0
 70
     8
 71
     3
 72
    18
 73
    14
 74
     0
 42
0.000000001
 43
0.0000000001
 40
0.028525742117437
 40
0.028525742117437
 40
0.028525742117437
 40
0.028525742117437
 40
0.0417123967319211
 40
0.0417123967319211
 40
0.0621425582382483
 40
0.0621425582382483
 40
0.0825727197445755
 40
0.0825727197445755
 40
0.1030028812509027
 40
0.1030028812509027
 40
0.1234330427572299
 40
0.1234330427572299
 40
0.136619697371714
 40
0.136619697371714
 40
0.136619697371714
 40
0.136619697371714
 10
-1.640887641897545
 20
-0.5041119872960073
 30
0.0
 10
-1.607361284868276
 20
-0.4721477389020121
 30
0.0
 10
-1.577583847894215
 20
-0.43722839466401
 30
0.0
 10
-1.513544462879814
 20
-0.3464961380674539
 30
0.0
 10
-1.479912206505317
 20
-0.2807354313929158
 30
0.0
 10
-1.435634174357704
 20
-0.1415427411867444
 30
0.0
 10
-1.424999999999999
 20
-0.0681005383544251
 30
0.0
 10
-1.424999999999999
 20
0.0681005383544231
 30
0.0
 10
-1.435634174357705
 20
0.1415427411867427
 30
0.0
 10
-1.479912206505317
 20
0.280735431392914
 30
0.0
 10
-1.513544462879814
 20
0.3464961380674517
 30
0.0
 10
-1.577583847894215
 20
0.4372283946640079
 30
0.0
 10
-1.607361284868276
 20
0.4721477389020097
 30
0.0
 10
-1.640887641897545
 20
0.504111987296005
 30
0.0
  0
SPLINE
  5
379F
330
3774
100
AcDbEntity
  8
0
100
AcDbSpline
210
0.0
220
0.0
230
1.0
 70
     8
 71
     3
 72
    12
 73
     8
 74
     0
 42
0.000000001
 43
0.0000000001
 40
0.0189754275574595
 40
0.0189754275574595
 40
0.0189754275574595
 40
0.0189754275574595
 40
0.0352344202520848
 40
0.0352344202520848
 40
0.052698504153813
 40
0.052698504153813
 40
0.0701625880555413
 40
0.0701625880555413
 40
0.0701625880555413
 40
0.0701625880555413
 10
-1.640887641897545
 20
0.504111987296005
 30
0.0
 10
-1.681557400528371
 20
0.5428868015671954
 30
0.0
 10
-1.713570417150725
 20
0.5906926935544323
 30
0.0
 10
-1.755815157730634
 20
0.6940104438226907
 30
0.0
 10
-1.766511220824486
 20
0.755672693542155
 30
0.0
 10
-1.758357025451157
 20
0.8772108276173822
 30
0.0
 10
-1.739506978977147
 20
0.9370855322909337
 30
0.0
 10
-1.710400172474266
 20
0.9874999999999987
 30
0.0
  0
SPLINE
  5
37A0
330
3774
100
AcDbEntity
  8
0
100
AcDbSpline
210
0.0
220
0.0
230
1.0
 70
     8
 71
     3
 72
    12
 73
     8
 74
     0
 42
0.000000001
 43
0.0000000001
 40
0.0701625880555411
 40
0.0701625880555411
 40
0.0701625880555411
 40
0.0701625880555411
 40
0.0876266719572693
 40
0.0876266719572693
 40
0.1050907558589975
 40
0.1050907558589975
 40
0.1213497485536227
 40
0.1213497485536227
 40
0.1213497485536227
 40
0.1213497485536227
 10
0.0000000000000008
 20
-1.974999999999998
 30
0.0
 10
-0.0582136130057599
 20
-1.974999999999998
 30
0.0
 10
-0.1194916515341506
 20
-1.961387266772233
 30
0.0
 10
-0.2288238608585213
 20
-1.907679940075344
 30
0.0
 10
-0.2768769040231517
 20
-1.867585752855855
 30
0.0
 10
-0.3452303301273658
 20
-1.779341859203241
 30
0.0
 10
-0.3706249387277116
 20
-1.727714827562891
 30
0.0
 10
-0.3838700335981731
 20
-1.67310637628722
 30
0.0
  0
SPLINE
  5
37A1
330
3774
100
AcDbEntity
  8
0
100
AcDbSpline
210
0.0
220
0.0
230
1.0
 70
     8
 71
     3
 72
    18
 73
    14
 74
     0
 42
0.000000001
 43
0.0000000001
 40
0.028525742117437
 40
0.028525742117437
 40
0.028525742117437
 40
0.028525742117437
 40
0.041712396731921
 40
0.041712396731921
 40
0.0621425582382483
 40
0.0621425582382483
 40
0.0825727197445755
 40
0.0825727197445755
 40
0.1030028812509027
 40
0.1030028812509027
 40
0.1234330427572299
 40
0.1234330427572299
 40
0.136619697371714
 40
0.136619697371714
 40
0.136619697371714
 40
0.136619697371714
 10
-0.3838700335981731
 20
-1.67310637628722
 30
0.0
 10
-0.3947887062056141
 20
-1.628089575206528
 30
0.0
 10
-0.4101410269121868
 20
-1.584841886208401
 30
0.0
 10
-0.4566977735602923
 20
-1.484016023644919
 30
0.0
 10
-0.4968320879240105
 20
-1.422009281900744
 30
0.0
 10
-0.5952374775898463
 20
-1.314067036128242
 30
0.0
 10
-0.6535232037736716
 20
-1.268136469570037
 30
0.0
 10
-0.771476796226327
 20
-1.200035931215613
 30
0.0
 10
-0.8403966967678575
 20
-1.172524294941499
 30
0.0
 10
-0.983080118581306
 20
-1.14127385050783
 30
0.0
 10
-1.056846689319521
 20
-1.137519885577466
 30
0.0
 10
-1.167442820982027
 20
-1.147613491544392
 30
0.0
 10
-1.212572578662661
 20
-1.155941836304518
 30
0.0
 10
-1.257017608299372
 20
-1.168994388991214
 30
0.0
  0
SPLINE
  5
37A2
330
3774
100
AcDbEntity
  8
0
100
AcDbSpline
210
0.0
220
0.0
230
1.0
 70
     8
 71
     3
 72
    12
 73
     8
 74
     0
 42
0.000000001
 43
0.0000000001
 40
0.0189754275574596
 40
0.0189754275574596
 40
0.0189754275574596
 40
0.0189754275574596
 40
0.0352344202520849
 40
0.0352344202520849
 40
0.0526985041538131
 40
0.0526985041538131
 40
0.0701625880555413
 40
0.0701625880555413
 40
0.0701625880555413
 40
0.0701625880555413
 10
-1.257017608299372
 20
-1.168994388991214
 30
0.0
 10
-1.310932461800659
 20
-1.184828025995696
 30
0.0
 10
-1.368340087023358
 20
-1.188649165648811
 30
0.0
 10
-1.478938253707481
 20
-1.173575309033165
 30
0.0
 10
-1.537687359965963
 20
-1.15200724653319
 30
0.0
 10
-1.638865373917004
 20
-1.084176439154851
 30
0.0
 10
-1.681293365971385
 20
-1.037914467709066
 30
0.0
 10
-1.710400172474266
 20
-0.9875000000000014
 30
0.0
  0
SPLINE
  5
37A3
330
3774
100
AcDbEntity
  8
0
100
AcDbSpline
210
0.0
220
0.0
230
1.0
 70
     8
 71
     3
 72
    12
 73
     8
 74
     0
 42
0.000000001
 43
0.0000000001
 40
0.0189754275574595
 40
0.0189754275574595
 40
0.0189754275574595
 40
0.0189754275574595
 40
0.0352344202520847
 40
0.0352344202520847
 40
0.0526985041538129
 40
0.0526985041538129
 40
0.0701625880555411
 40
0.0701625880555411
 40
0.0701625880555411
 40
0.0701625880555411
 10
0.3838700335981744
 20
-1.673106376287219
 30
0.0
 10
0.3706249387277131
 20
-1.727714827562891
 30
0.0
 10
0.3452303301273673
 20
-1.779341859203242
 30
0.0
 10
0.2768769040231533
 20
-1.867585752855855
 30
0.0
 10
0.2288238608585231
 20
-1.907679940075344
 30
0.0
 10
0.1194916515341524
 20
-1.961387266772233
 30
0.0
 10
0.0582136130057615
 20
-1.974999999999998
 30
0.0
 10
0.0000000000000008
 20
-1.974999999999998
 30
0.0
  0
SPLINE
  5
37A4
330
3774
100
AcDbEntity
  8
0
100
AcDbSpline
210
0.0
220
0.0
230
1.0
 70
     8
 71
     3
 72
    12
 73
     8
 74
     0
 42
0.000000001
 43
0.0000000001
 40
0.0701625880555416
 40
0.0701625880555416
 40
0.0701625880555416
 40
0.0701625880555416
 40
0.0876266719572699
 40
0.0876266719572699
 40
0.1050907558589983
 40
0.1050907558589983
 40
0.1213497485536236
 40
0.1213497485536236
 40
0.1213497485536236
 40
0.1213497485536236
 10
1.710400172474269
 20
-0.9875000000000007
 30
0.0
 10
1.681293365971388
 20
-1.037914467709066
 30
0.0
 10
1.638865373917007
 20
-1.084176439154851
 30
0.0
 10
1.537687359965965
 20
-1.15200724653319
 30
0.0
 10
1.478938253707482
 20
-1.173575309033166
 30
0.0
 10
1.368340087023359
 20
-1.188649165648811
 30
0.0
 10
1.310932461800661
 20
-1.184828025995695
 30
0.0
 10
1.257017608299373
 20
-1.168994388991213
 30
0.0
  0
SPLINE
  5
37A5
330
3774
100
AcDbEntity
  8
0
100
AcDbSpline
210
0.0
220
0.0
230
1.0
 70
     8
 71
     3
 72
    18
 73
    14
 74
     0
 42
0.000000001
 43
0.0000000001
 40
0.0285257421174369
 40
0.0285257421174369
 40
0.0285257421174369
 40
0.0285257421174369
 40
0.0417123967319211
 40
0.0417123967319211
 40
0.0621425582382483
 40
0.0621425582382483
 40
0.0825727197445755
 40
0.0825727197445755
 40
0.1030028812509027
 40
0.1030028812509027
 40
0.1234330427572299
 40
0.1234330427572299
 40
0.1366196973717139
 40
0.1366196973717139
 40
0.1366196973717139
 40
0.1366196973717139
 10
1.257017608299373
 20
-1.168994388991213
 30
0.0
 10
1.212572578662662
 20
-1.155941836304517
 30
0.0
 10
1.167442820982028
 20
-1.147613491544391
 30
0.0
 10
1.056846689319522
 20
-1.137519885577466
 30
0.0
 10
0.983080118581307
 20
-1.141273850507829
 30
0.0
 10
0.8403966967678588
 20
-1.172524294941498
 30
0.0
 10
0.7714767962263281
 20
-1.200035931215612
 30
0.0
 10
0.6535232037736727
 20
-1.268136469570036
 30
0.0
 10
0.5952374775898474
 20
-1.314067036128242
 30
0.0
 10
0.4968320879240117
 20
-1.422009281900744
 30
0.0
 10
0.4566977735602939
 20
-1.484016023644919
 30
0.0
 10
0.4101410269121882
 20
-1.5848418862084
 30
0.0
 10
0.3947887062056155
 20
-1.628089575206528
 30
0.0
 10
0.3838700335981744
 20
-1.673106376287219
 30
0.0
  0
SPLINE
  5
37A6
330
3774
100
AcDbEntity
  8
0
100
AcDbSpline
210
0.0
220
0.0
230
1.0
 70
     8
 71
     3
 72
    12
 73
     8
 74
     0
 42
0.000000001
 43
0.0000000001
 40
0.0189754275574596
 40
0.0189754275574596
 40
0.0189754275574596
 40
0.0189754275574596
 40
0.035234420252085
 40
0.035234420252085
 40
0.0526985041538133
 40
0.0526985041538133
 40
0.0701625880555416
 40
0.0701625880555416
 40
0.0701625880555416
 40
0.0701625880555416
 10
1.640887641897545
 20
-0.5041119872960067
 30
0.0
 10
1.681557400528371
 20
-0.5428868015671974
 30
0.0
 10
1.713570417150727
 20
-0.5906926935544323
 30
0.0
 10
1.755815157730637
 20
-0.6940104438226915
 30
0.0
 10
1.766511220824488
 20
-0.755672693542156
 30
0.0
 10
1.758357025451159
 20
-0.877210827617384
 30
0.0
 10
1.739506978977149
 20
-0.9370855322909354
 30
0.0
 10
1.710400172474269
 20
-0.9875000000000007
 30
0.0
  0
SPLINE
  5
37A7
330
3774
100
AcDbEntity
  8
0
100
AcDbSpline
210
0.0
220
0.0
230
1.0
 70
     8
 71
     3
 72
    12
 73
     8
 74
     0
 42
0.000000001
 43
0.0000000001
 40
0.0701625880555412
 40
0.0701625880555412
 40
0.0701625880555412
 40
0.0701625880555412
 40
0.0876266719572695
 40
0.0876266719572695
 40
0.1050907558589977
 40
0.1050907558589977
 40
0.121349748553623
 40
0.121349748553623
 40
0.121349748553623
 40
0.121349748553623
 10
1.710400172474265
 20
0.9874999999999996
 30
0.0
 10
1.739506978977145
 20
0.9370855322909347
 30
0.0
 10
1.758357025451155
 20
0.8772108276173838
 30
0.0
 10
1.766511220824484
 20
0.7556726935421566
 30
0.0
 10
1.755815157730633
 20
0.694010443822692
 30
0.0
 10
1.713570417150725
 20
0.5906926935544333
 30
0.0
 10
1.681557400528371
 20
0.5428868015671956
 30
0.0
 10
1.640887641897545
 20
0.5041119872960053
 30
0.0
  0
SPLINE
  5
37A8
330
3774
100
AcDbEntity
  8
0
100
AcDbSpline
210
0.0
220
0.0
230
1.0
 70
     8
 71
     3
 72
    18
 73
    14
 74
     0
 42
0.000000001
 43
0.0000000001
 40
0.028525742117437
 40
0.028525742117437
 40
0.028525742117437
 40
0.028525742117437
 40
0.0417123967319209
 40
0.0417123967319209
 40
0.062142558238248
 40
0.062142558238248
 40
0.0825727197445751
 40
0.0825727197445751
 40
0.1030028812509022
 40
0.1030028812509022
 40
0.1234330427572293
 40
0.1234330427572293
 40
0.1366196973717132
 40
0.1366196973717132
 40
0.1366196973717132
 40
0.1366196973717132
 10
1.640887641897545
 20
0.5041119872960053
 30
0.0
 10
1.607361284868276
 20
0.4721477389020105
 30
0.0
 10
1.577583847894219
 20
0.4372283946640058
 30
0.0
 10
1.513544462879819
 20
0.3464961380674505
 30
0.0
 10
1.479912206505321
 20
0.2807354313929129
 30
0.0
 10
1.435634174357709
 20
0.1415427411867423
 30
0.0
 10
1.425000000000004
 20
0.0681005383544231
 30
0.0
 10
1.425000000000004
 20
-0.0681005383544244
 30
0.0
 10
1.435634174357709
 20
-0.1415427411867434
 30
0.0
 10
1.479912206505321
 20
-0.2807354313929142
 30
0.0
 10
1.513544462879819
 20
-0.3464961380674516
 30
0.0
 10
1.577583847894219
 20
-0.4372283946640069
 30
0.0
 10
1.607361284868276
 20
-0.4721477389020118
 30
0.0
 10
1.640887641897545
 20
-0.5041119872960067
 30
0.0
  0
SPLINE
  5
37A9
330
3774
100
AcDbEntity
  8
0
100
AcDbSpline
210
0.0
220
0.0
230
1.0
 70
     8
 71
     3
 72
    12
 73
     8
 74
     0
 42
0.000000001
 43
0.0000000001
 40
0.0189754275574595
 40
0.0189754275574595
 40
0.0189754275574595
 40
0.0189754275574595
 40
0.0352344202520848
 40
0.0352344202520848
 40
0.052698504153813
 40
0.052698504153813
 40
0.0701625880555412
 40
0.0701625880555412
 40
0.0701625880555412
 40
0.0701625880555412
 10
1.257017608299371
 20
1.168994388991214
 30
0.0
 10
1.310932461800658
 20
1.184828025995695
 30
0.0
 10
1.368340087023357
 20
1.188649165648809
 30
0.0
 10
1.47893825370748
 20
1.173575309033163
 30
0.0
 10
1.537687359965961
 20
1.152007246533188
 30
0.0
 10
1.638865373917003
 20
1.08417643915485
 30
0.0
 10
1.681293365971384
 20
1.037914467709064
 30
0.0
 10
1.710400172474265
 20
0.9874999999999996
 30
0.0
  0
SPLINE
  5
37AA
330
3774
100
AcDbEntity
  8
0
100
AcDbSpline
210
0.0
220
0.0
230
1.0
 70
     8
 71
     3
 72
    12
 73
     8
 74
     0
 42
0.000000001
 43
0.0000000001
 40
0.0701625880555413
 40
0.0701625880555413
 40
0.0701625880555413
 40
0.0701625880555413
 40
0.0876266719572695
 40
0.0876266719572695
 40
0.1050907558589977
 40
0.1050907558589977
 40
0.121349748553623
 40
0.121349748553623
 40
0.121349748553623
 40
0.121349748553623
 10
-0.0000000000000009
 20
1.974999999999999
 30
0.0
 10
0.0582136130057599
 20
1.974999999999999
 30
0.0
 10
0.119491651534151
 20
1.961387266772234
 30
0.0
 10
0.2288238608585219
 20
1.907679940075345
 30
0.0
 10
0.2768769040231522
 20
1.867585752855856
 30
0.0
 10
0.3452303301273663
 20
1.779341859203243
 30
0.0
 10
0.3706249387277112
 20
1.727714827562891
 30
0.0
 10
0.3838700335981727
 20
1.67310637628722
 30
0.0
  0
SPLINE
  5
37AB
330
3774
100
AcDbEntity
  8
0
100
AcDbSpline
210
0.0
220
0.0
230
1.0
 70
     8
 71
     3
 72
    18
 73
    14
 74
     0
 42
0.000000001
 43
0.0000000001
 40
0.028525742117437
 40
0.028525742117437
 40
0.028525742117437
 40
0.028525742117437
 40
0.0417123967319211
 40
0.0417123967319211
 40
0.0621425582382483
 40
0.0621425582382483
 40
0.0825727197445755
 40
0.0825727197445755
 40
0.1030028812509027
 40
0.1030028812509027
 40
0.1234330427572299
 40
0.1234330427572299
 40
0.1366196973717139
 40
0.1366196973717139
 40
0.1366196973717139
 40
0.1366196973717139
 10
0.3838700335981727
 20
1.67310637628722
 30
0.0
 10
0.3947887062056138
 20
1.628089575206528
 30
0.0
 10
0.4101410269121869
 20
1.5848418862084
 30
0.0
 10
0.4566977735602924
 20
1.484016023644919
 30
0.0
 10
0.4968320879240105
 20
1.422009281900744
 30
0.0
 10
0.5952374775898464
 20
1.314067036128241
 30
0.0
 10
0.6535232037736716
 20
1.268136469570036
 30
0.0
 10
0.771476796226327
 20
1.200035931215612
 30
0.0
 10
0.8403966967678579
 20
1.172524294941498
 30
0.0
 10
0.9830801185813061
 20
1.141273850507829
 30
0.0
 10
1.056846689319521
 20
1.137519885577466
 30
0.0
 10
1.167442820982027
 20
1.147613491544391
 30
0.0
 10
1.21257257866266
 20
1.155941836304517
 30
0.0
 10
1.257017608299371
 20
1.168994388991214
 30
0.0
  0
CIRCLE
  5
37AC
330
3774
100
AcDbEntity
  8
0
100
AcDbCircle
 10
0.0
 20
-0.0000000000000003
 30
0.0
 40
1.974999999999999
  0
CIRCLE
  5
37AD
330
3774
100
AcDbEntity
  8
0
100
AcDbCircle
 10
0.0
 20
-0.0000000000000003
 30
0.0
 40
3.5
  0
ENDBLK
  5
3776
330
3774
100
AcDbEntity
  8
0
100
AcDbBlockEnd
  0
BLOCK
  5
3815
330
3814
100
AcDbEntity
  8
0
100
AcDbBlockBegin
  2
DSIX442X45T-20-ISO
 70
     0
 10
0.0
 20
0.0
 30
0.0
  3
DSIX442X45T-20-ISO
  1

  0
LINE
  5
3817
330
3814
100
AcDbEntity
  8
0
100
AcDbLine
 10
1.723136323577269
 20
17.55074746322354
 30
0.0
 11
2.132455266261246
 21
17.31442706148054
 31
0.0
  0
LINE
  5
3818
330
3814
100
AcDbEntity
  8
0
100
AcDbLine
 10
1.723136323577269
 20
17.55074746322354
 30
0.0
 11
1.723136323577269
 21
17.45276787351222
 31
0.0
  0
LINE
  5
3819
330
3814
100
AcDbEntity
  8
0
100
AcDbLine
 10
1.998612660534674
 20
17.28800606014799
 30
0.0
 11
2.088784763476208
 21
17.23594517224131
 31
0.0
  0
LINE
  5
381A
330
3814
100
AcDbEntity
  8
0
100
AcDbLine
 10
2.132455266261246
 20
17.31442706148054
 30
0.0
 11
2.132455266261246
 21
17.21644747176921
 31
0.0
  0
LINE
  5
381B
330
3814
100
AcDbEntity
  8
0
100
AcDbLine
 10
1.638283509834883
 20
17.50175766836788
 30
0.0
 11
1.723136323577269
 21
17.55074746322354
 31
0.0
  0
LINE
  5
381C
330
3814
100
AcDbEntity
  8
0
100
AcDbLine
 10
1.998612660534674
 20
17.29372153621449
 30
0.0
 11
1.638283509834883
 21
17.50175766836788
 31
0.0
  0
LINE
  5
381D
330
3814
100
AcDbEntity
  8
0
100
AcDbLine
 10
1.998612660534674
 20
17.29372153621449
 30
0.0
 11
1.998612660534674
 21
17.22199549795326
 31
0.0
  0
LINE
  5
381E
330
3814
100
AcDbEntity
  8
0
100
AcDbLine
 10
1.792495047715749
 20
17.26183502730477
 30
0.0
 11
1.998612660534674
 21
17.29372153621449
 31
0.0
  0
LINE
  5
381F
330
3814
100
AcDbEntity
  8
0
100
AcDbLine
 10
1.792495047715749
 20
17.26183502730477
 30
0.0
 11
1.792495047715749
 21
17.16385543759345
 31
0.0
  0
LINE
  5
3820
330
3814
100
AcDbEntity
  8
0
100
AcDbLine
 10
1.8003025330498
 20
17.15934778383414
 30
0.0
 11
1.890474635991333
 21
17.17329745812218
 31
0.0
  0
LINE
  5
3821
330
3814
100
AcDbEntity
  8
0
100
AcDbLine
 10
1.507610176671607
 20
17.42631338429016
 30
0.0
 11
1.792495047715749
 21
17.26183502730477
 31
0.0
  0
LINE
  5
3822
330
3814
100
AcDbEntity
  8
0
100
AcDbLine
 10
1.507610176671607
 20
17.42631338429016
 30
0.0
 11
1.507610176671607
 21
17.32833379457883
 31
0.0
  0
LINE
  5
3823
330
3814
100
AcDbEntity
  8
0
100
AcDbLine
 10
1.658652441989177
 20
17.23541402597223
 30
0.0
 11
1.748824544930709
 21
17.18335313806554
 31
0.0
  0
LINE
  5
3824
330
3814
100
AcDbEntity
  8
0
100
AcDbLine
 10
1.422757362929222
 20
17.37732358943449
 30
0.0
 11
1.507610176671607
 21
17.42631338429016
 31
0.0
  0
LINE
  5
3825
330
3814
100
AcDbEntity
  8
0
100
AcDbLine
 10
1.658652441989177
 20
17.24112950203872
 30
0.0
 11
1.422757362929222
 21
17.37732358943449
 31
0.0
  0
LINE
  5
3826
330
3814
100
AcDbEntity
  8
0
100
AcDbLine
 10
1.658652441989177
 20
17.24112950203872
 30
0.0
 11
1.658652441989177
 21
17.1694034637775
 31
0.0
  0
LINE
  5
3827
330
3814
100
AcDbEntity
  8
0
100
AcDbLine
 10
1.370642740167713
 20
17.19657424158516
 30
0.0
 11
1.658652441989177
 21
17.24112950203872
 31
0.0
  0
LINE
  5
3828
330
3814
100
AcDbEntity
  8
0
100
AcDbLine
 10
1.401701028521896
 20
17.12965293774125
 30
0.0
 11
1.370642740167713
 21
17.19657424158516
 31
0.0
  0
LINE
  5
3829
330
3814
100
AcDbEntity
  8
0
100
AcDbLine
 10
1.75663203026476
 20
17.18456096037273
 30
0.0
 11
1.401701028521896
 21
17.12965293774125
 31
0.0
  0
LINE
  5
382A
330
3814
100
AcDbEntity
  8
0
100
AcDbLine
 10
2.165950972948738
 20
16.94824055862972
 30
0.0
 11
1.75663203026476
 21
17.18456096037273
 31
0.0
  0
LINE
  5
382B
330
3814
100
AcDbEntity
  8
0
100
AcDbLine
 10
2.250803786691124
 20
16.99723035348538
 30
0.0
 11
2.165950972948738
 21
16.94824055862972
 31
0.0
  0
LINE
  5
382C
330
3814
100
AcDbEntity
  8
0
100
AcDbLine
 10
1.890474635991333
 20
17.20526648563877
 30
0.0
 11
2.250803786691124
 21
16.99723035348538
 31
0.0
  0
LINE
  5
382D
330
3814
100
AcDbEntity
  8
0
100
AcDbLine
 10
1.890474635991333
 20
17.20526648563877
 30
0.0
 11
1.890474635991333
 21
17.10728689592745
 31
0.0
  0
LINE
  5
382E
330
3814
100
AcDbEntity
  8
0
100
AcDbLine
 10
2.096592248810259
 20
17.23715299454849
 30
0.0
 11
1.890474635991333
 21
17.20526648563877
 31
0.0
  0
LINE
  5
382F
330
3814
100
AcDbEntity
  8
0
100
AcDbLine
 10
2.3814771198544
 20
17.0726746375631
 30
0.0
 11
2.096592248810259
 21
17.23715299454849
 31
0.0
  0
LINE
  5
3830
330
3814
100
AcDbEntity
  8
0
100
AcDbLine
 10
2.466329933596785
 20
17.12166443241877
 30
0.0
 11
2.3814771198544
 21
17.0726746375631
 31
0.0
  0
LINE
  5
3831
330
3814
100
AcDbEntity
  8
0
100
AcDbLine
 10
2.230434854536832
 20
17.25785851981454
 30
0.0
 11
2.466329933596785
 21
17.12166443241877
 31
0.0
  0
LINE
  5
3832
330
3814
100
AcDbEntity
  8
0
100
AcDbLine
 10
2.230434854536832
 20
17.25785851981454
 30
0.0
 11
2.230434854536832
 21
17.15987893010321
 31
0.0
  0
LINE
  5
3833
330
3814
100
AcDbEntity
  8
0
100
AcDbLine
 10
2.518444556358297
 20
17.30241378026811
 30
0.0
 11
2.230434854536832
 21
17.25785851981454
 31
0.0
  0
LINE
  5
3834
330
3814
100
AcDbEntity
  8
0
100
AcDbLine
 10
2.487386268004116
 20
17.36933508411202
 30
0.0
 11
2.518444556358297
 21
17.30241378026811
 31
0.0
  0
LINE
  5
3835
330
3814
100
AcDbEntity
  8
0
100
AcDbLine
 10
2.487386268004116
 20
17.36933508411202
 30
0.0
 11
2.487386268004116
 21
17.29760904585079
 31
0.0
  0
LINE
  5
3836
330
3814
100
AcDbEntity
  8
0
100
AcDbLine
 10
2.132455266261246
 20
17.31442706148054
 30
0.0
 11
2.487386268004116
 21
17.36933508411202
 31
0.0
  0
LINE
  5
3837
330
3814
100
AcDbEntity
  8
0
100
AcDbLine
 10
2.140262751595296
 20
17.2119398180099
 30
0.0
 11
2.230434854536832
 21
17.22588949229795
 31
0.0
  0
LINE
  5
3838
330
3814
100
AcDbEntity
  8
0
100
AcDbLine
 10
-1.767497454022648
 20
19.30395996237993
 30
0.0
 11
-1.996013673299067
 21
19.43589386309336
 31
0.0
  0
LINE
  5
3839
330
3814
100
AcDbEntity
  8
0
100
AcDbLine
 10
-1.767497454022648
 20
19.30395996237993
 30
0.0
 11
-1.767497454022648
 21
19.2002648966021
 31
0.0
  0
LINE
  5
383A
330
3814
100
AcDbEntity
  8
0
100
AcDbLine
 10
-1.89846311742871
 20
19.22834690135784
 30
0.0
 11
-1.767497454022648
 21
19.30395996237993
 31
0.0
  0
LINE
  5
383B
330
3814
100
AcDbEntity
  8
0
100
AcDbLine
 10
-1.89846311742871
 20
19.22834690135784
 30
0.0
 11
-1.89846311742871
 21
19.14860073267162
 31
0.0
  0
LINE
  5
383C
330
3814
100
AcDbEntity
  8
0
100
AcDbLine
 10
-1.863873962579097
 20
19.14462189344348
 30
0.0
 11
-1.767497454022648
 21
19.2002648966021
 31
0.0
  0
SPLINE
  5
383D
330
3814
100
AcDbEntity
  8
0
100
AcDbSpline
210
0.0
220
0.0
230
1.0
 70
     8
 71
     2
 72
     7
 73
     4
 74
     0
 42
0.000000001
 43
0.0000000001
 40
0.0
 40
0.0
 40
0.0
 40
1.0
 40
2.0
 40
2.0
 40
2.0
 10
-2.198660131902685
 20
19.3170288865072
 30
0.0
 10
-2.131829916831279
 20
19.27844444384572
 30
0.0
 10
-1.957747985637214
 20
19.23208087967992
 30
0.0
 10
-1.89846311742871
 20
19.22834690135784
 30
0.0
  0
LINE
  5
383E
330
3814
100
AcDbEntity
  8
0
100
AcDbLine
 10
-2.198660131902685
 20
19.3170288865072
 30
0.0
 11
-2.198660131902685
 21
19.22547385644276
 31
0.0
  0
SPLINE
  5
383F
330
3814
100
AcDbEntity
  8
0
100
AcDbSpline
210
0.0
220
0.0
230
1.0
 70
     8
 71
     2
 72
     8
 73
     5
 74
     0
 42
0.000000001
 43
0.0000000001
 40
0.0
 40
0.0
 40
0.0
 40
1.0
 40
2.0
 40
3.0
 40
3.0
 40
3.0
 10
-2.200276991944734
 20
19.64530781398992
 30
0.0
 10
-2.294593827730992
 20
19.59085396345961
 30
0.0
 10
-2.350644975855397
 20
19.47572296519553
 30
0.0
 10
-2.275730460573741
 20
19.36152546151197
 30
0.0
 10
-2.198660131902685
 20
19.3170288865072
 30
0.0
  0
SPLINE
  5
3840
330
3814
100
AcDbEntity
  8
0
100
AcDbSpline
210
0.0
220
0.0
230
1.0
 70
     8
 71
     2
 72
     7
 73
     4
 74
     0
 42
0.000000001
 43
0.0000000001
 40
1.427983539094652
 40
1.427983539094652
 40
1.427983539094652
 40
2.0
 40
2.574160160167044
 40
2.574160160167044
 40
2.574160160167044
 10
-2.334613886165495
 20
19.38040472051222
 30
0.0
 10
-2.334613886165495
 20
19.34759057352658
 30
0.0
 10
-2.291681253168093
 20
19.28214531907311
 30
0.0
 10
-2.257115947502123
 20
19.25351592279413
 30
0.0
  0
SPLINE
  5
3841
330
3814
100
AcDbEntity
  8
0
100
AcDbSpline
210
0.0
220
0.0
230
1.0
 70
     8
 71
     2
 72
     6
 73
     3
 74
     0
 42
0.000000001
 43
0.0000000001
 40
0.0
 40
0.0
 40
0.0
 40
1.0
 40
1.0
 40
1.0
 10
-2.028350874140068
 20
19.71034126976612
 30
0.0
 10
-2.123745616621027
 20
19.68949322413452
 30
0.0
 10
-2.200276991944734
 20
19.64530781398992
 30
0.0
  0
SPLINE
  5
3842
330
3814
100
AcDbEntity
  8
0
100
AcDbSpline
210
0.0
220
0.0
230
1.0
 70
     8
 71
     2
 72
     8
 73
     5
 74
     0
 42
0.000000001
 43
0.0000000001
 40
0.0
 40
0.0
 40
0.0
 40
1.0
 40
2.0
 40
3.0
 40
3.0
 40
3.0
 10
-1.633837023879835
 20
19.64499664912975
 30
0.0
 10
-1.704439912382691
 20
19.68575924581244
 30
0.0
 10
-1.845645689388403
 20
19.72247669931288
 30
0.0
 10
-1.972838679363014
 20
19.72185436959253
 30
0.0
 10
-2.028350874140068
 20
19.71034126976612
 30
0.0
  0
SPLINE
  5
3843
330
3814
100
AcDbEntity
  8
0
100
AcDbSpline
210
0.0
220
0.0
230
1.0
 70
     8
 71
     2
 72
     8
 73
     5
 74
     0
 42
0.000000001
 43
0.0000000001
 40
0.0
 40
0.0
 40
0.0
 40
1.0
 40
2.0
 40
3.0
 40
3.0
 40
3.0
 10
-1.56215622868228
 20
19.42687008214834
 30
0.0
 10
-1.525507401062477
 20
19.4679438436912
 30
0.0
 10
-1.515806240810175
 20
19.53391079404792
 30
0.0
 10
-1.57509110901868
 20
19.61107967937087
 30
0.0
 10
-1.633837023879835
 20
19.64499664912975
 30
0.0
  0
LINE
  5
3844
330
3814
100
AcDbEntity
  8
0
100
AcDbLine
 10
-1.44628125900202
 20
19.386729815186
 30
0.0
 11
-1.56215622868228
 21
19.42687008214834
 31
0.0
  0
SPLINE
  5
3845
330
3814
100
AcDbEntity
  8
0
100
AcDbSpline
210
0.0
220
0.0
230
1.0
 70
     8
 71
     2
 72
     8
 73
     5
 74
     0
 42
0.000000001
 43
0.0000000001
 40
0.0
 40
0.0
 40
0.0
 40
1.0
 40
2.0
 40
3.0
 40
3.0
 40
3.0
 10
-1.554071928472029
 20
19.69167137815573
 30
0.0
 10
-1.469456252938071
 20
19.64281849510854
 30
0.0
 10
-1.383223717362064
 20
19.53577778320896
 30
0.0
 10
-1.394541737656416
 20
19.43962784141544
 30
0.0
 10
-1.44628125900202
 20
19.386729815186
 30
0.0
  0
LINE
  5
3846
330
3814
100
AcDbEntity
  8
0
100
AcDbLine
 10
-1.554071928472029
 20
19.69167137815573
 30
0.0
 11
-1.554071928472029
 21
19.58797631237791
 31
0.0
  0
SPLINE
  5
3847
330
3814
100
AcDbEntity
  8
0
100
AcDbSpline
210
0.0
220
0.0
230
1.0
 70
     8
 71
     2
 72
     7
 73
     4
 74
     0
 42
0.000000001
 43
0.0000000001
 40
0.0
 40
0.0
 40
0.0
 40
1.0
 40
1.364899433965877
 40
1.364899433965877
 40
1.364899433965877
 10
-1.554071928472029
 20
19.58797631237791
 30
0.0
 10
-1.469456252938071
 20
19.53912342933072
 30
0.0
 10
-1.410606883439504
 20
19.46607352578919
 30
0.0
 10
-1.401368287875671
 20
19.44726903991306
 30
0.0
  0
SPLINE
  5
3848
330
3814
100
AcDbEntity
  8
0
100
AcDbSpline
210
0.0
220
0.0
230
1.0
 70
     8
 71
     2
 72
     8
 73
     5
 74
     0
 42
0.000000001
 43
0.0000000001
 40
0.0
 40
0.0
 40
0.0
 40
1.0
 40
2.0
 40
3.0
 40
3.0
 40
3.0
 10
-2.312379288193542
 20
19.70318447798214
 30
0.0
 10
-2.208900245502333
 20
19.76292813113539
 30
0.0
 10
-1.93511194504851
 20
19.81146984932241
 30
0.0
 10
-1.669946898152288
 20
19.75857182309297
 30
0.0
 10
-1.554071928472029
 20
19.69167137815573
 30
0.0
  0
LINE
  5
3849
330
3814
100
AcDbEntity
  8
0
100
AcDbLine
 10
-2.312379288193542
 20
19.70318447798214
 30
0.0
 11
-2.312379288193542
 21
19.59948941220432
 31
0.0
  0
SPLINE
  5
384A
330
3814
100
AcDbEntity
  8
0
100
AcDbSpline
210
0.0
220
0.0
230
1.0
 70
     8
 71
     2
 72
     6
 73
     3
 74
     0
 42
0.000000001
 43
0.0000000001
 40
0.0
 40
0.0
 40
0.0
 40
0.6001167586813893
 40
0.6001167586813893
 40
0.6001167586813893
 10
-2.312379288193542
 20
19.59948941220432
 30
0.0
 10
-2.250279780502241
 20
19.63534257968643
 30
0.0
 10
-2.176146151837879
 20
19.65842057071546
 30
0.0
  0
SPLINE
  5
384B
330
3814
100
AcDbEntity
  8
0
100
AcDbSpline
210
0.0
220
0.0
230
1.0
 70
     8
 71
     2
 72
     6
 73
     3
 74
     0
 42
0.000000001
 43
0.0000000001
 40
2.955226219562779
 40
2.955226219562779
 40
2.955226219562779
 40
3.0
 40
3.0
 40
3.0
 10
-1.564481742862894
 20
19.59388599140537
 30
0.0
 10
-1.559260088922662
 20
19.59097169821068
 30
0.0
 10
-1.554071928472029
 20
19.58797631237791
 30
0.0
  0
SPLINE
  5
384C
330
3814
100
AcDbEntity
  8
0
100
AcDbSpline
210
0.0
220
0.0
230
1.0
 70
     8
 71
     2
 72
     8
 73
     5
 74
     0
 42
0.000000001
 43
0.0000000001
 40
0.0
 40
0.0
 40
0.0
 40
1.0
 40
2.0
 40
3.0
 40
3.0
 40
3.0
 10
-2.277347320615791
 20
19.2647531899981
 30
0.0
 10
-2.392144383601351
 20
19.33103130521499
 30
0.0
 10
-2.489694939471708
 20
19.49065887848384
 30
0.0
 10
-2.416397284232102
 20
19.64312965996871
 30
0.0
 10
-2.312379288193542
 20
19.70318447798214
 30
0.0
  0
SPLINE
  5
384D
330
3814
100
AcDbEntity
  8
0
100
AcDbSpline
210
0.0
220
0.0
230
1.0
 70
     8
 71
     2
 72
     7
 73
     4
 74
     0
 42
0.000000001
 43
0.0000000001
 40
1.904314241883448
 40
1.904314241883448
 40
1.904314241883448
 40
2.0
 40
3.0
 40
3.0
 40
3.0
 10
-2.459277530585131
 20
19.44857715818207
 30
0.0
 10
-2.456552882706789
 20
19.45590456228996
 30
0.0
 10
-2.416397284232102
 20
19.53943459419089
 30
0.0
 10
-2.312379288193542
 20
19.59948941220432
 30
0.0
  0
SPLINE
  5
384E
330
3814
100
AcDbEntity
  8
0
100
AcDbSpline
210
0.0
220
0.0
230
1.0
 70
     8
 71
     2
 72
     7
 73
     4
 74
     0
 42
0.000000001
 43
0.0000000001
 40
0.0
 40
0.0
 40
0.0
 40
1.0
 40
2.0
 40
2.0
 40
2.0
 10
-1.845106736041055
 20
19.14277656481021
 30
0.0
 10
-1.976072399447117
 20
19.15491199435696
 30
0.0
 10
-2.192731645081834
 20
19.21590030695091
 30
0.0
 10
-2.277347320615791
 20
19.2647531899981
 30
0.0
  0
LINE
  5
384F
330
3814
100
AcDbEntity
  8
0
100
AcDbLine
 10
-1.583175409228932
 20
19.29400268685438
 30
0.0
 11
-1.845106736041055
 21
19.14277656481021
 31
0.0
  0
LINE
  5
3850
330
3814
100
AcDbEntity
  8
0
100
AcDbLine
 10
-1.912475904459809
 20
19.48412441642021
 30
0.0
 11
-1.583175409228932
 21
19.29400268685438
 31
0.0
  0
LINE
  5
3851
330
3814
100
AcDbEntity
  8
0
100
AcDbLine
 10
-1.912475904459809
 20
19.48412441642021
 30
0.0
 11
-1.912475904459809
 21
19.38766330976651
 31
0.0
  0
LINE
  5
3852
330
3814
100
AcDbEntity
  8
0
100
AcDbLine
 10
-1.767497454022648
 20
19.2967260032558
 30
0.0
 11
-1.672977970439624
 21
19.24215515396547
 31
0.0
  0
LINE
  5
3853
330
3814
100
AcDbEntity
  8
0
100
AcDbLine
 10
-1.996013673299067
 20
19.43589386309336
 30
0.0
 11
-1.912475904459809
 21
19.48412441642021
 31
0.0
  0
LINE
  5
3854
330
3814
100
AcDbEntity
  8
0
100
AcDbLine
 10
-2.334613886165495
 20
19.48409978629004
 30
0.0
 11
-2.334613886165495
 21
19.38040472051222
 31
0.0
  0
LINE
  5
3855
330
3814
100
AcDbEntity
  8
0
100
AcDbLine
 10
-1.519974708106086
 20
19.51031468258333
 30
0.0
 11
-1.519974708106086
 21
19.41225797479264
 31
0.0
  0
SPLINE
  5
3856
330
3814
100
AcDbEntity
  8
0
100
AcDbSpline
210
0.0
220
0.0
230
1.0
 70
     8
 71
     3
 72
    12
 73
     8
 74
     0
 42
0.000000001
 43
0.0000000001
 40
0.0701625880555413
 40
0.0701625880555413
 40
0.0701625880555413
 40
0.0701625880555413
 40
0.0876266719572695
 40
0.0876266719572695
 40
0.1050907558589977
 40
0.1050907558589977
 40
0.121349748553623
 40
0.121349748553623
 40
0.121349748553623
 40
0.121349748553623
 10
-0.5111676140774804
 20
19.26946579772511
 30
0.0
 10
-0.4549375818336188
 20
19.27816461398631
 30
0.0
 10
-0.3922243072194641
 20
19.27817510637503
 30
0.0
 10
-0.2727170235771136
 20
19.25827139750104
 30
0.0
 10
-0.2159242089023038
 20
19.23834188371754
 30
0.0
 10
-0.1270606690216043
 20
19.18848484676904
 30
0.0
 10
-0.0891693016953956
 20
19.15697401617526
 30
0.0
 10
-0.062241815274671
 20
19.12126284920145
 30
0.0
  0
SPLINE
  5
3857
330
3814
100
AcDbEntity
  8
0
100
AcDbSpline
210
0.0
220
0.0
230
1.0
 70
     8
 71
     3
 72
    18
 73
    14
 74
     0
 42
0.000000001
 43
0.0000000001
 40
0.028525742117437
 40
0.028525742117437
 40
0.028525742117437
 40
0.028525742117437
 40
0.0417123967319211
 40
0.0417123967319211
 40
0.0621425582382483
 40
0.0621425582382483
 40
0.0825727197445755
 40
0.0825727197445755
 40
0.1030028812509027
 40
0.1030028812509027
 40
0.1234330427572299
 40
0.1234330427572299
 40
0.1366196973717141
 40
0.1366196973717141
 40
0.1366196973717141
 40
0.1366196973717141
 10
-0.062241815274671
 20
19.12126284920145
 30
0.0
 10
-0.0400439819450739
 20
19.09182413664936
 30
0.0
 10
-0.014021453311736
 20
19.06448107092179
 30
0.0
 10
0.0570445641339845
 20
19.00301204293792
 30
0.0
 10
0.11185986058645
 20
18.96763183163015
 30
0.0
 10
0.2348496768877805
 20
18.91295811304205
 30
0.0
 10
0.3030370704903629
 20
18.89373565779567
 30
0.0
 10
0.4345972080518178
 20
18.87338323368567
 30
0.0
 10
0.5082892553598303
 20
18.87065686303823
 30
0.0
 10
0.6541990676600884
 20
18.88373166431168
 30
0.0
 10
0.7264237010715351
 20
18.89945873007384
 30
0.0
 10
0.8306389434740154
 20
18.9338116527914
 30
0.0
 10
0.8720754077138066
 20
18.95071877600297
 30
0.0
 10
0.9116277604675671
 20
18.97060470152295
 30
0.0
  0
SPLINE
  5
3858
330
3814
100
AcDbEntity
  8
0
100
AcDbSpline
210
0.0
220
0.0
230
1.0
 70
     8
 71
     3
 72
    12
 73
     8
 74
     0
 42
0.000000001
 43
0.0000000001
 40
0.0189754275574595
 40
0.0189754275574595
 40
0.0189754275574595
 40
0.0189754275574595
 40
0.0352344202520848
 40
0.0352344202520848
 40
0.052698504153813
 40
0.052698504153813
 40
0.0701625880555413
 40
0.0701625880555413
 40
0.0701625880555413
 40
0.0701625880555413
 10
0.9116277604675671
 20
18.97060470152295
 30
0.0
 10
0.9596074630750528
 20
18.99472768602562
 30
0.0
 10
1.014069987187359
 20
19.01195131989245
 30
0.0
 10
1.124801013903049
 20
19.03093096993092
 30
0.0
 10
1.187130518250473
 20
19.03243219682869
 30
0.0
 10
1.302416879772614
 20
19.0160132023877
 30
0.0
 10
1.355372652329686
 20
18.99810864612778
 30
0.0
 10
1.396535892843429
 20
18.97434303813646
 30
0.0
  0
SPLINE
  5
3859
330
3814
100
AcDbEntity
  8
0
100
AcDbSpline
210
0.0
220
0.0
230
1.0
 70
     8
 71
     3
 72
    12
 73
     8
 74
     0
 42
0.000000001
 43
0.0000000001
 40
0.0701625880555413
 40
0.0701625880555413
 40
0.0701625880555413
 40
0.0701625880555413
 40
0.0876266719572696
 40
0.0876266719572696
 40
0.1050907558589978
 40
0.1050907558589978
 40
0.1213497485536232
 40
0.1213497485536232
 40
0.1213497485536232
 40
0.1213497485536232
 10
-1.907703506920911
 20
18.46317542405898
 30
0.0
 10
-1.892636715190792
 20
18.49563984831151
 30
0.0
 10
-1.863627901182037
 20
18.5262243702412
 30
0.0
 10
-1.783453349248285
 20
18.57288127322592
 30
0.0
 10
-1.732288295582772
 20
18.58893771555585
 30
0.0
 10
-1.629360071217628
 20
18.6030112666893
 30
0.0
 10
-1.572919579672876
 20
18.6029443890525
 30
0.0
 10
-1.516743783445391
 20
18.59493431629476
 30
0.0
  0
SPLINE
  5
385A
330
3814
100
AcDbEntity
  8
0
100
AcDbSpline
210
0.0
220
0.0
230
1.0
 70
     8
 71
     3
 72
    18
 73
    14
 74
     0
 42
0.000000001
 43
0.0000000001
 40
0.028525742117437
 40
0.028525742117437
 40
0.028525742117437
 40
0.028525742117437
 40
0.0417123967319211
 40
0.0417123967319211
 40
0.0621425582382483
 40
0.0621425582382483
 40
0.0825727197445755
 40
0.0825727197445755
 40
0.1030028812509027
 40
0.1030028812509027
 40
0.1234330427572299
 40
0.1234330427572299
 40
0.136619697371714
 40
0.136619697371714
 40
0.136619697371714
 40
0.136619697371714
 10
-1.516743783445391
 20
18.59493431629476
 30
0.0
 10
-1.470434932246588
 20
18.58833116525214
 30
0.0
 10
-1.424687399530596
 20
18.58491145330768
 30
0.0
 10
-1.315247322212115
 20
18.58361112357854
 30
0.0
 10
-1.244965884037918
 20
18.589929823813
 30
0.0
 10
-1.115232492112363
 20
18.61949717463386
 30
0.0
 10
-1.055781515663698
 20
18.64282084273789
 30
0.0
 10
-0.9594728107179633
 20
18.69842469946362
 30
0.0
 10
-0.915060827870606
 20
18.73506633886798
 30
0.0
 10
-0.8479460295233966
 20
18.81914934369058
 30
0.0
 10
-0.8252277844472233
 20
18.86652403561528
 30
0.0
 10
-0.8063530739421393
 20
18.94190694263536
 30
0.0
 10
-0.8027171964475742
 20
18.97383817975839
 30
0.0
 10
-0.8038217740565267
 20
19.00654003032663
 30
0.0
  0
SPLINE
  5
385B
330
3814
100
AcDbEntity
  8
0
100
AcDbSpline
210
0.0
220
0.0
230
1.0
 70
     8
 71
     3
 72
    12
 73
     8
 74
     0
 42
0.000000001
 43
0.0000000001
 40
0.0189754275574595
 40
0.0189754275574595
 40
0.0189754275574595
 40
0.0189754275574595
 40
0.0352344202520848
 40
0.0352344202520848
 40
0.052698504153813
 40
0.052698504153813
 40
0.0701625880555413
 40
0.0701625880555413
 40
0.0701625880555413
 40
0.0701625880555413
 10
-0.8038217740565267
 20
19.00654003032663
 30
0.0
 10
-0.8051617020631962
 20
19.04620960636291
 30
0.0
 10
-0.7939944527982537
 20
19.08530983135548
 30
0.0
 10
-0.7508093135001502
 20
19.15559487006522
 30
0.0
 10
-0.7147707773259602
 20
19.18988544380353
 30
0.0
 10
-0.6230644517050058
 20
19.24246401174357
 30
0.0
 10
-0.567397646321342
 20
19.2607669814639
 30
0.0
 10
-0.5111676140774804
 20
19.26946579772511
 30
0.0
  0
SPLINE
  5
385C
330
3814
100
AcDbEntity
  8
0
100
AcDbSpline
210
0.0
220
0.0
230
1.0
 70
     8
 71
     3
 72
     8
 73
     4
 74
     0
 42
0.000000001
 43
0.0000000001
 40
0.1208309966638755
 40
0.1208309966638755
 40
0.1208309966638755
 40
0.1208309966638755
 40
0.1213497485536227
 40
0.1213497485536227
 40
0.1213497485536227
 40
0.1213497485536227
 10
-1.457268808394894
 20
17.60254674875341
 30
0.0
 10
-1.45635744284243
 20
17.60320865055426
 30
0.0
 10
-1.455435151195595
 20
17.60386613077431
 30
0.0
 10
-1.454501968170721
 20
17.60451906575606
 30
0.0
  0
SPLINE
  5
385D
330
3814
100
AcDbEntity
  8
0
100
AcDbSpline
210
0.0
220
0.0
230
1.0
 70
     8
 71
     3
 72
    18
 73
    14
 74
     0
 42
0.000000001
 43
0.0000000001
 40
0.028525742117437
 40
0.028525742117437
 40
0.028525742117437
 40
0.028525742117437
 40
0.041712396731921
 40
0.041712396731921
 40
0.0621425582382483
 40
0.0621425582382483
 40
0.0825727197445755
 40
0.0825727197445755
 40
0.1030028812509027
 40
0.1030028812509027
 40
0.1234330427572299
 40
0.1234330427572299
 40
0.136619697371714
 40
0.136619697371714
 40
0.136619697371714
 40
0.136619697371714
 10
-1.454501968170721
 20
17.60451906575606
 30
0.0
 10
-1.430390950301516
 20
17.62138920440277
 30
0.0
 10
-1.410665946218861
 20
17.63979367139119
 30
0.0
 10
-1.3722918863461
 20
17.68776472072581
 30
0.0
 10
-1.356825744624369
 20
17.72266594759224
 30
0.0
 10
-1.350082169000144
 20
17.79772562092969
 30
0.0
 10
-1.358818586154062
 20
17.83795414213197
 30
0.0
 10
-1.394070018769781
 20
17.9139104229677
 30
0.0
 10
-1.423350083230437
 20
17.95559603516763
 30
0.0
 10
-1.502145097183486
 20
18.03578563478829
 30
0.0
 10
-1.551651485518758
 20
18.07423094562662
 30
0.0
 10
-1.636992017416154
 20
18.12745857884927
 30
0.0
 10
-1.674792604161381
 20
18.1480015795554
 30
0.0
 10
-1.715449534524094
 20
18.16678292746643
 30
0.0
  0
SPLINE
  5
385E
330
3814
100
AcDbEntity
  8
0
100
AcDbSpline
210
0.0
220
0.0
230
1.0
 70
     8
 71
     3
 72
    12
 73
     8
 74
     0
 42
0.000000001
 43
0.0000000001
 40
0.0189754275574596
 40
0.0189754275574596
 40
0.0189754275574596
 40
0.0189754275574596
 40
0.0352344202520849
 40
0.0352344202520849
 40
0.0526985041538131
 40
0.0526985041538131
 40
0.0701625880555413
 40
0.0701625880555413
 40
0.0701625880555413
 40
0.0701625880555413
 10
-1.715449534524094
 20
18.16678292746643
 30
0.0
 10
-1.764769165138249
 20
18.18956598396242
 30
0.0
 10
-1.808064439985614
 20
18.2179568670942
 30
0.0
 10
-1.875610327403201
 20
18.28012165643077
 30
0.0
 10
-1.901901295576434
 20
18.31766141950273
 30
0.0
 10
-1.925481331477621
 20
18.3929487506827
 30
0.0
 10
-1.922770298651029
 20
18.43071099980644
 30
0.0
 10
-1.907703506920911
 20
18.46317542405898
 30
0.0
  0
SPLINE
  5
385F
330
3814
100
AcDbEntity
  8
0
100
AcDbSpline
210
0.0
220
0.0
230
1.0
 70
     8
 71
     3
 72
    14
 73
    10
 74
     0
 42
0.000000001
 43
0.0000000001
 40
0.0560019654545531
 40
0.0560019654545531
 40
0.0560019654545531
 40
0.0560019654545531
 40
0.0621425582382483
 40
0.0621425582382483
 40
0.0825727197445755
 40
0.0825727197445755
 40
0.1030028812509027
 40
0.1030028812509027
 40
0.1174535963263886
 40
0.1174535963263886
 40
0.1174535963263886
 40
0.1174535963263886
 10
-0.119849707033313
 20
17.23398350754452
 30
0.0
 10
-0.13699175865855
 20
17.24001787076867
 30
0.0
 10
-0.1548715477842609
 20
17.24580264446083
 30
0.0
 10
-0.2348496768877821
 20
17.26941500563372
 30
0.0
 10
-0.3030370704903644
 20
17.28400225658383
 30
0.0
 10
-0.4345972080518193
 20
17.30435468069384
 30
0.0
 10
-0.5082892553598321
 20
17.31171625563754
 30
0.0
 10
-0.6328468158408062
 20
17.31623040881322
 30
0.0
 10
-0.6840841108728211
 20
17.31571126276168
 30
0.0
 10
-0.7320687734738214
 20
17.31310565310225
 30
0.0
  0
SPLINE
  5
3860
330
3814
100
AcDbEntity
  8
0
100
AcDbSpline
210
0.0
220
0.0
230
1.0
 70
     8
 71
     3
 72
     8
 73
     4
 74
     0
 42
0.000000001
 43
0.0000000001
 40
0.1171568331781045
 40
0.1171568331781045
 40
0.1171568331781045
 40
0.1171568331781045
 40
0.121349748553623
 40
0.121349748553623
 40
0.121349748553623
 40
0.121349748553623
 10
1.560135490984931
 20
17.67301965388987
 30
0.0
 10
1.545734935500762
 20
17.67052639771914
 30
0.0
 10
1.531230557882041
 20
17.66842754105663
 30
0.0
 10
1.516743783445388
 20
17.66676088103073
 30
0.0
  0
SPLINE
  5
3861
330
3814
100
AcDbEntity
  8
0
100
AcDbSpline
210
0.0
220
0.0
230
1.0
 70
     8
 71
     3
 72
    16
 73
    12
 74
     0
 42
0.000000001
 43
0.0000000001
 40
0.028525742117437
 40
0.028525742117437
 40
0.028525742117437
 40
0.028525742117437
 40
0.0417123967319209
 40
0.0417123967319209
 40
0.062142558238248
 40
0.062142558238248
 40
0.0825727197445751
 40
0.0825727197445751
 40
0.1030028812509022
 40
0.1030028812509022
 40
0.1194378483461129
 40
0.1194378483461129
 40
0.1194378483461129
 40
0.1194378483461129
 10
1.516743783445388
 20
17.66676088103073
 30
0.0
 10
1.470434932246586
 20
17.66143318634784
 30
0.0
 10
1.424687399530595
 20
17.65381512470293
 30
0.0
 10
1.315247322212114
 20
17.63072015659182
 30
0.0
 10
1.244965884037918
 20
17.61080608700578
 30
0.0
 10
1.115232492112363
 20
17.56287594404191
 30
0.0
 10
1.055781515663699
 20
17.53491707164161
 30
0.0
 10
0.9594728107179644
 20
17.47931321491589
 30
0.0
 10
0.9150608278706071
 20
17.44730677980779
 30
0.0
 10
0.8545083043046556
 20
17.38801248369067
 30
0.0
 10
0.8345275628005497
 20
17.36098343802702
 30
0.0
 10
0.8217737291562041
 20
17.33529169300286
 30
0.0
  0
SPLINE
  5
3862
330
3814
100
AcDbEntity
  8
0
100
AcDbSpline
210
0.0
220
0.0
230
1.0
 70
     8
 71
     3
 72
    10
 73
     6
 74
     0
 42
0.000000001
 43
0.0000000001
 40
0.0189754275574595
 40
0.0189754275574595
 40
0.0189754275574595
 40
0.0189754275574595
 40
0.0352344202520848
 40
0.0352344202520848
 40
0.0425305134940944
 40
0.0425305134940944
 40
0.0425305134940944
 40
0.0425305134940944
 10
1.715449534524092
 20
18.09491226985906
 30
0.0
 10
1.764769165138247
 20
18.08660214328785
 30
0.0
 10
1.80806443998561
 20
18.07123984416812
 30
0.0
 10
1.855244274786317
 20
18.04298890091416
 30
0.0
 10
1.868341507812569
 20
18.03300024208854
 30
0.0
 10
1.87949840377708
 20
18.02204904628742
 30
0.0
  0
SPLINE
  5
3863
330
3814
100
AcDbEntity
  8
0
100
AcDbSpline
210
0.0
220
0.0
230
1.0
 70
     8
 71
     3
 72
    12
 73
     8
 74
     0
 42
0.000000001
 43
0.0000000001
 40
0.0701625880555413
 40
0.0701625880555413
 40
0.0701625880555413
 40
0.0701625880555413
 40
0.0876266719572695
 40
0.0876266719572695
 40
0.1050907558589977
 40
0.1050907558589977
 40
0.121349748553623
 40
0.121349748553623
 40
0.121349748553623
 40
0.121349748553623
 10
1.396535892843429
 20
18.97434303813646
 30
0.0
 10
1.437699133357172
 20
18.95057743014513
 30
0.0
 10
1.471403593962572
 20
18.91844867746066
 30
0.0
 10
1.51073632567117
 20
18.84559829680303
 30
0.0
 10
1.516364086680466
 20
18.80486192445816
 30
0.0
 10
1.502299402196022
 20
18.73007193571091
 30
0.0
 10
1.48375027797748
 20
18.6921136907479
 30
0.0
 10
1.45450196817072
 20
18.65717613156943
 30
0.0
  0
SPLINE
  5
3864
330
3814
100
AcDbEntity
  8
0
100
AcDbSpline
210
0.0
220
0.0
230
1.0
 70
     8
 71
     3
 72
    18
 73
    14
 74
     0
 42
0.000000001
 43
0.0000000001
 40
0.028525742117437
 40
0.028525742117437
 40
0.028525742117437
 40
0.028525742117437
 40
0.0417123967319211
 40
0.0417123967319211
 40
0.0621425582382483
 40
0.0621425582382483
 40
0.0825727197445755
 40
0.0825727197445755
 40
0.1030028812509027
 40
0.1030028812509027
 40
0.1234330427572299
 40
0.1234330427572299
 40
0.1366196973717139
 40
0.1366196973717139
 40
0.1366196973717139
 40
0.1366196973717139
 10
1.45450196817072
 20
18.65717613156943
 30
0.0
 10
1.430390950301514
 20
18.62837514719721
 30
0.0
 10
1.410665946218859
 20
18.59893290661942
 30
0.0
 10
1.372291886346098
 20
18.52656655944456
 30
0.0
 10
1.356825744624367
 20
18.47806996322654
 30
0.0
 10
1.350082169000143
 20
18.38464749774608
 30
0.0
 10
1.358818586154061
 20
18.33978377224753
 30
0.0
 10
1.39407001876978
 20
18.2638274914118
 30
0.0
 10
1.423350083230435
 20
18.22677708350814
 30
0.0
 10
1.502145097183484
 20
18.16495027603049
 30
0.0
 10
1.551651485518757
 20
18.14010033454374
 30
0.0
 10
1.636992017416153
 20
18.11126799916135
 30
0.0
 10
1.674792604161379
 20
18.10176277204458
 30
0.0
 10
1.715449534524092
 20
18.09491226985906
 30
0.0
  0
ELLIPSE
  5
3865
330
3814
100
AcDbEntity
  8
0
100
AcDbEllipse
 10
-0.0000000000000009
 20
18.16805266447033
 30
0.0
 11
1.974999999999999
 21
-0.0000000000000007
 31
0.0
210
0.0
220
0.0
230
1.0
 40
0.5773502691896258
 41
0.7853981633974492
 42
1.832595714594045
  0
ELLIPSE
  5
3866
330
3814
100
AcDbEntity
  8
0
100
AcDbEllipse
 10
-0.0000000000000009
 20
18.16805266447033
 30
0.0
 11
-1.974999999999999
 21
0.0000000000000004
 31
0.0
210
0.0
220
0.0
230
1.0
 40
0.5773502691896258
 41
4.974188368183839
 42
6.021385919380437
  0
ELLIPSE
  5
3867
330
3814
100
AcDbEntity
  8
0
100
AcDbEllipse
 10
-0.0000000000000009
 20
18.16805266447033
 30
0.0
 11
-1.974999999999999
 21
0.0000000000000007
 31
0.0
210
0.0
220
0.0
230
1.0
 40
0.5773502691896259
 41
6.021385919380437
 42
6.193558171728798
  0
ELLIPSE
  5
3868
330
3814
100
AcDbEntity
  8
0
100
AcDbEllipse
 10
-0.0000000000000009
 20
18.16805266447033
 30
0.0
 11
1.974999999999999
 21
-0.0000000000000007
 31
0.0
210
0.0
220
0.0
230
1.0
 40
0.5773502691896258
 41
0.0896271354507894
 42
0.7853981633974492
  0
ELLIPSE
  5
3869
330
3814
100
AcDbEntity
  8
0
100
AcDbEllipse
 10
-0.0000000000000009
 20
18.37217680970226
 30
0.0
 11
1.974999999999999
 21
-0.0000000000000004
 31
0.0
210
0.0
220
0.0
230
1.0
 40
0.5773502691896258
 41
0.0
 42
6.283185307179586
  0
LINE
  5
386A
330
3814
100
AcDbEntity
  8
0
100
AcDbLine
 10
-1.454501968170721
 20
17.60451906575606
 30
0.0
 11
-1.454501968170721
 21
17.60080378610786
 31
0.0
  0
LINE
  5
386B
330
3814
100
AcDbEntity
  8
0
100
AcDbLine
 10
1.715449534524092
 20
18.09491226985906
 30
0.0
 11
1.715449534524092
 21
17.80712286109762
 31
0.0
  0
LINE
  5
386C
330
3814
100
AcDbEntity
  8
0
100
AcDbLine
 10
0.9116277604675671
 20
18.97060470152295
 30
0.0
 11
0.9116277604675671
 21
17.72545738228782
 31
0.0
  0
SPLINE
  5
386D
330
3814
100
AcDbEntity
  8
0
100
AcDbSpline
210
0.0
220
0.0
230
1.0
 70
     8
 71
     3
 72
    12
 73
     8
 74
     0
 42
0.000000001
 43
0.0000000001
 40
0.1758978908950095
 40
0.1758978908950095
 40
0.1758978908950095
 40
0.1758978908950095
 40
0.1876544926563665
 40
0.1876544926563665
 40
0.2051185765580947
 40
0.2051185765580947
 40
0.22137756925272
 40
0.22137756925272
 40
0.22137756925272
 40
0.22137756925272
 10
1.352647353202111
 20
17.75048459399998
 30
0.0
 10
1.320258782634618
 20
17.76362870008504
 30
0.0
 10
1.283578363732534
 20
17.77354885003655
 30
0.0
 10
1.187130518250473
 20
17.78728487759355
 30
0.0
 10
1.124801013903049
 20
17.78578365069578
 30
0.0
 10
1.014069987187358
 20
17.76680400065731
 30
0.0
 10
0.9596074630750523
 20
17.74958036679048
 30
0.0
 10
0.9116277604675671
 20
17.72545738228782
 30
0.0
  0
LINE
  5
386E
330
3814
100
AcDbEntity
  8
0
100
AcDbLine
 10
-1.516743783445391
 20
18.59493431629476
 30
0.0
 11
-1.516743783445391
 21
18.04476249551965
 31
0.0
  0
SPLINE
  5
386F
330
3814
100
AcDbEntity
  8
0
100
AcDbSpline
210
0.0
220
0.0
230
1.0
 70
     8
 71
     3
 72
    18
 73
    14
 74
     0
 42
0.000000001
 43
0.0000000001
 40
0.1190032482565566
 40
0.1190032482565566
 40
0.1190032482565566
 40
0.1190032482565566
 40
0.1352622409511818
 40
0.1352622409511818
 40
0.15272632485291
 40
0.15272632485291
 40
0.1701904087546383
 40
0.1701904087546383
 40
0.1876544926563666
 40
0.1876544926563666
 40
0.2051185765580948
 40
0.2051185765580948
 40
0.2189579795830252
 40
0.2189579795830252
 40
0.2189579795830252
 40
0.2189579795830252
 10
-0.0622418152746713
 20
17.87611552996631
 30
0.0
 10
-0.0891693016953957
 20
17.91182669694012
 30
0.0
 10
-0.1270606690216041
 20
17.9433375275339
 30
0.0
 10
-0.2159242089023039
 20
17.99319456448241
 30
0.0
 10
-0.2727170235771139
 20
18.01312407826591
 30
0.0
 10
-0.3922243072194639
 20
18.03302778713989
 30
0.0
 10
-0.454937581833619
 20
18.03301729475117
 30
0.0
 10
-0.5673976463213423
 20
18.01561966222876
 30
0.0
 10
-0.623064451705006
 20
17.99731669250844
 30
0.0
 10
-0.7147707773259605
 20
17.94473812456839
 30
0.0
 10
-0.7508093135001505
 20
17.91044755083008
 30
0.0
 10
-0.7908959716548902
 20
17.8452053780377
 30
0.0
 10
-0.8016241915934902
 20
17.81258426513335
 30
0.0
 10
-0.8035984306850801
 20
17.77904991882968
 30
0.0
  0
LINE
  5
3870
330
3814
100
AcDbEntity
  8
0
100
AcDbLine
 10
-0.062241815274671
 20
19.12126284920145
 30
0.0
 11
-0.0622418152746713
 21
17.87611552996631
 31
0.0
  0
SPLINE
  5
3871
330
3814
100
AcDbEntity
  8
0
100
AcDbSpline
210
0.0
220
0.0
230
1.0
 70
     8
 71
     3
 72
    18
 73
    14
 74
     0
 42
0.000000001
 43
0.0000000001
 40
0.2877940432104188
 40
0.2877940432104188
 40
0.2877940432104188
 40
0.2877940432104188
 40
0.3009806978249029
 40
0.3009806978249029
 40
0.3214108593312301
 40
0.3214108593312301
 40
0.3418410208375573
 40
0.3418410208375573
 40
0.3622711823438845
 40
0.3622711823438845
 40
0.3827013438502117
 40
0.3827013438502117
 40
0.3958879984646958
 40
0.3958879984646958
 40
0.3958879984646958
 40
0.3958879984646958
 10
0.9116277604675671
 20
17.72545738228782
 30
0.0
 10
0.8720754077138064
 20
17.70557145676784
 30
0.0
 10
0.830638943474015
 20
17.68866433355627
 30
0.0
 10
0.7264237010715349
 20
17.65431141083871
 30
0.0
 10
0.6541990676600884
 20
17.63858434507655
 30
0.0
 10
0.5082892553598299
 20
17.6255095438031
 30
0.0
 10
0.4345972080518176
 20
17.62823591445053
 30
0.0
 10
0.3030370704903626
 20
17.64858833856053
 30
0.0
 10
0.2348496768877806
 20
17.66781079380692
 30
0.0
 10
0.1118598605864498
 20
17.72248451239502
 30
0.0
 10
0.0570445641339842
 20
17.75786472370278
 30
0.0
 10
-0.0140214533117363
 20
17.81933375168665
 30
0.0
 10
-0.0400439819450741
 20
17.84667681741422
 30
0.0
 10
-0.0622418152746713
 20
17.87611552996631
 30
0.0
  0
SPLINE
  5
3872
330
3814
100
AcDbEntity
  8
0
100
AcDbSpline
210
0.0
220
0.0
230
1.0
 70
     8
 71
     3
 72
    14
 73
    10
 74
     0
 42
0.000000001
 43
0.0000000001
 40
0.2893731803585742
 40
0.2893731803585742
 40
0.2893731803585742
 40
0.2893731803585742
 40
0.3009806978249028
 40
0.3009806978249028
 40
0.32141085933123
 40
0.32141085933123
 40
0.3418410208375573
 40
0.3418410208375573
 40
0.3470423657831648
 40
0.3470423657831648
 40
0.3470423657831648
 40
0.3470423657831648
 10
-0.8036272200055789
 20
17.74968019406198
 30
0.0
 10
-0.8036420441056801
 20
17.72107702066013
 30
0.0
 10
-0.8072397062874554
 20
17.69321854002149
 30
0.0
 10
-0.8252277844472233
 20
17.62137671638015
 30
0.0
 10
-0.8479460295233966
 20
17.57400202445544
 30
0.0
 10
-0.915060827870606
 20
17.48991901963284
 30
0.0
 10
-0.959472810717963
 20
17.45327738022848
 30
0.0
 10
-1.019886850798595
 20
17.41839731792509
 30
0.0
 10
-1.032878749637614
 20
17.41160945056909
 30
0.0
 10
-1.046505814142621
 20
17.40517887573257
 30
0.0
  0
LINE
  5
3873
330
3814
100
AcDbEntity
  8
0
100
AcDbLine
 10
-1.352711255005134
 20
17.77687851958818
 30
0.0
 11
-1.352711255005134
 21
17.54135447398452
 31
0.0
  0
LINE
  5
3874
330
3814
100
AcDbEntity
  8
0
100
AcDbLine
 10
1.352711255005133
 20
18.41091018851963
 30
0.0
 11
1.352711255005133
 21
17.63832194884856
 31
0.0
  0
LINE
  5
3875
330
3814
100
AcDbEntity
  8
0
100
AcDbLine
 10
-0.8036237229066529
 20
18.99482725673597
 30
0.0
 11
-0.8036237229066532
 21
17.74967993750084
 31
0.0
  0
ELLIPSE
  5
3876
330
3814
100
AcDbEntity
  8
0
100
AcDbEllipse
 10
-0.0000000000000009
 20
18.37217680970226
 30
0.0
 11
-3.5
 21
-0.0000000000002082
 31
0.0
210
0.0
220
0.0
230
1.0
 40
0.5773502691896258
 41
0.0
 42
6.283185307179586
  0
ELLIPSE
  5
3877
330
3814
100
AcDbEntity
  8
0
100
AcDbEllipse
 10
-0.0000000000000048
 20
0.8175003197561437
 30
0.0
 11
1.299999999999999
 21
0.0000000000000774
 31
0.0
210
0.0
220
0.0
230
1.0
 40
0.577350269189626
 41
3.926990816987
 42
5.497787143781895
  0
ELLIPSE
  5
3878
330
3814
100
AcDbEntity
  8
0
100
AcDbEllipse
 10
-0.0000000000000048
 20
1.001212050464881
 30
0.0
 11
-1.524999999999999
 21
0.0000000000000003
 31
0.0
210
0.0
220
0.0
230
1.0
 40
0.5773502691896259
 41
0.0
 42
3.141592653589792
  0
ELLIPSE
  5
3879
330
3814
100
AcDbEntity
  8
0
100
AcDbEllipse
 10
-0.0000000000000016
 20
15.22482803532371
 30
0.0
 11
1.525000000000001
 21
0.0000000000000904
 31
0.0
210
0.0
220
0.0
230
1.0
 40
0.5773502691896258
 41
4.158563178569648
 42
5.266214782199492
  0
ELLIPSE
  5
387A
330
3814
100
AcDbEntity
  8
0
100
AcDbEllipse
 10
-0.000000000000001
 20
17.88227886114562
 30
0.0
 11
3.5
 21
-0.000000000000001
 31
0.0
210
0.0
220
0.0
230
1.0
 40
0.5773502691896257
 41
5.5979545649437
 42
6.283185307179588
  0
ELLIPSE
  5
387B
330
3814
100
AcDbEntity
  8
0
100
AcDbEllipse
 10
-0.000000000000001
 20
17.88227886114562
 30
0.0
 11
3.5
 21
0.0000000000002079
 31
0.0
210
0.0
220
0.0
230
1.0
 40
0.5773502691896258
 41
4.027158238148613
 42
5.397619722620391
  0
ELLIPSE
  5
387C
330
3814
100
AcDbEntity
  8
0
100
AcDbEllipse
 10
-0.000000000000001
 20
17.88227886114562
 30
0.0
 11
-3.5
 21
0.000000000000001
 31
0.0
210
0.0
220
0.0
230
1.0
 40
0.5773502691896259
 41
0.0000000000000003
 42
0.6852307422358895
  0
ELLIPSE
  5
387D
330
3814
100
AcDbEntity
  8
0
100
AcDbEllipse
 10
-0.000000000000008
 20
-13.15299774827517
 30
0.0
 11
1.299999999999997
 21
0.0000000000000777
 31
0.0
210
0.0
220
0.0
230
1.0
 40
0.577350269189626
 41
3.755360065784275
 42
5.505305203698296
  0
LINE
  5
387E
330
3814
100
AcDbEntity
  8
0
100
AcDbLine
 10
-0.9192388155425151
 20
0.2867775421531227
 30
0.0
 11
-1.078337841309489
 21
0.3786334075074893
 31
0.0
  0
LINE
  5
387F
330
3814
100
AcDbEntity
  8
0
100
AcDbLine
 10
0.9192388155425055
 20
0.2867775421531204
 30
0.0
 11
1.078337841309479
 21
0.3786334075074893
 31
0.0
  0
LINE
  5
3880
330
3814
100
AcDbEntity
  8
0
100
AcDbLine
 10
-1.525000000000005
 20
1.001212050464881
 30
0.0
 11
-1.525000000000002
 21
14.49763281344741
 31
0.0
  0
LINE
  5
3881
330
3814
100
AcDbEntity
  8
0
100
AcDbLine
 10
1.524999999999995
 20
1.001212050464881
 30
0.0
 11
1.524999999999998
 21
14.49763281344741
 31
0.0
  0
LINE
  5
3882
330
3814
100
AcDbEntity
  8
0
100
AcDbLine
 10
2.709955647322593
 20
16.46650795168359
 30
0.0
 11
3.161427849859232
 21
17.01521985697608
 31
0.0
  0
LINE
  5
3883
330
3814
100
AcDbEntity
  8
0
100
AcDbLine
 10
-2.709955647322592
 20
16.46650795168359
 30
0.0
 11
-3.161427849859235
 21
17.01521985697608
 31
0.0
  0
LINE
  5
3884
330
3814
100
AcDbEntity
  8
0
100
AcDbLine
 10
-3.500000000000001
 20
17.88227886114562
 30
0.0
 11
-3.500000000000001
 21
18.37217680970226
 31
0.0
  0
LINE
  5
3885
330
3814
100
AcDbEntity
  8
0
100
AcDbLine
 10
3.5
 20
17.88227886114562
 30
0.0
 11
3.5
 21
18.37217680970226
 31
0.0
  0
LINE
  5
3886
330
3814
100
AcDbEntity
  8
0
100
AcDbLine
 10
0.0
 20
-18.37016933204543
 30
0.0
 11
-0.6274004205620104
 21
-15.87847224428907
 31
0.0
  0
LINE
  5
3887
330
3814
100
AcDbEntity
  8
0
100
AcDbLine
 10
-0.7381138020698024
 20
-15.43877822873277
 30
0.0
 11
-1.212840120701348
 21
-13.55342057379854
 31
0.0
  0
LINE
  5
3888
330
3814
100
AcDbEntity
  8
0
100
AcDbLine
 10
-1.300000000000006
 20
-12.88589068353096
 30
0.0
 11
-1.300000000000006
 21
-11.15914271391243
 31
0.0
  0
LINE
  5
3889
330
3814
100
AcDbEntity
  8
0
100
AcDbLine
 10
-1.300000000000005
 20
-10.19370369445842
 30
0.0
 11
-1.300000000000005
 21
-8.628003313036476
 31
0.0
  0
LINE
  5
388A
330
3814
100
AcDbEntity
  8
0
100
AcDbLine
 10
-1.300000000000005
 20
-7.66256429358247
 30
0.0
 11
-1.300000000000005
 21
-6.096863912160523
 31
0.0
  0
LINE
  5
388B
330
3814
100
AcDbEntity
  8
0
100
AcDbLine
 10
-1.300000000000004
 20
-5.131424892706517
 30
0.0
 11
-1.300000000000004
 21
-3.565724511284571
 31
0.0
  0
LINE
  5
388C
330
3814
100
AcDbEntity
  8
0
100
AcDbLine
 10
-1.300000000000004
 20
-2.60028549183056
 30
0.0
 11
-1.300000000000003
 21
-0.838547488502912
 31
0.0
  0
LINE
  5
388D
330
3814
100
AcDbEntity
  8
0
100
AcDbLine
 10
-1.300000000000003
 20
-0.1552727962891054
 30
0.0
 11
-1.300000000000003
 21
0.540913234476832
 31
0.0
  0
LINE
  5
388E
330
3814
100
AcDbEntity
  8
0
100
AcDbLine
 10
1.299999999999991
 20
-8.928133994020441
 30
0.0
 11
1.299999999999991
 21
-8.090183721234232
 31
0.0
  0
LINE
  5
388F
330
3814
100
AcDbEntity
  8
0
100
AcDbLine
 10
1.299999999999992
 20
-6.396994593144493
 30
0.0
 11
1.299999999999992
 21
-5.559044320358279
 31
0.0
  0
LINE
  5
3890
330
3814
100
AcDbEntity
  8
0
100
AcDbLine
 10
1.299999999999992
 20
-3.865855192268541
 30
0.0
 11
1.299999999999992
 21
-3.027904919482327
 31
0.0
  0
LINE
  5
3891
330
3814
100
AcDbEntity
  8
0
100
AcDbLine
 10
1.299999999999993
 20
-1.334715791392588
 30
0.0
 11
1.299999999999993
 21
0.53402753856717
 31
0.0
  0
SPLINE
  5
3892
330
3814
100
AcDbEntity
  8
0
100
AcDbSpline
210
0.0
220
0.0
230
1.0
 70
     8
 71
     3
 72
    14
 73
    10
 74
     0
 42
0.000000001
 43
0.0000000001
 40
1.418115877383924
 40
1.418115877383924
 40
1.418115877383924
 40
1.418115877383924
 40
2.553449081692271
 40
2.553449081692271
 40
2.553449081692271
 40
3.722726375294743
 40
3.722726375294743
 40
3.722726375294743
 40
4.625520821061293
 40
4.625520821061293
 40
4.625520821061293
 40
4.625520821061293
 10
1.594000053505896
 20
-12.76612308884099
 30
0.0
 10
1.125102553692115
 20
-13.25561759416388
 30
0.0
 10
0.3224132128429074
 20
-13.55839923101824
 30
0.0
 10
-0.3680189603575836
 20
-13.611803101706
 30
0.0
 10
-1.079093612127115
 20
-13.66680363648181
 30
0.0
 10
-1.631990372627475
 20
-13.4660198224519
 30
0.0
 10
-1.739211643993434
 20
-13.22769015485648
 30
0.0
 10
-1.821996770145149
 20
-13.04367674645133
 30
0.0
 10
-1.639898103135837
 20
-12.8515425151179
 30
0.0
 10
-1.296733455120402
 20
-12.75447170650888
 30
0.0
  0
SPLINE
  5
3893
330
3814
100
AcDbEntity
  8
0
100
AcDbSpline
210
0.0
220
0.0
230
1.0
 70
     8
 71
     3
 72
     8
 73
     4
 74
     0
 42
0.000000001
 43
0.0000000001
 40
6.177009384789152
 40
6.177009384789152
 40
6.177009384789152
 40
6.177009384789152
 40
6.283185307179586
 40
6.283185307179586
 40
6.283185307179586
 40
6.283185307179586
 10
0.9816155441523605
 20
-13.3064220468674
 30
0.0
 10
1.022711221305665
 20
-13.34212071385849
 30
0.0
 10
1.061712289695692
 20
-13.37901782253245
 30
0.0
 10
1.098410028819914
 20
-13.41697666147591
 30
0.0
  0
SPLINE
  5
3894
330
3814
100
AcDbEntity
  8
0
100
AcDbSpline
210
0.0
220
0.0
230
1.0
 70
     8
 71
     3
 72
    20
 73
    16
 74
     0
 42
0.000000001
 43
0.0000000001
 40
0.0851027329263631
 40
0.0851027329263631
 40
0.0851027329263631
 40
0.0851027329263631
 40
0.1193926424992095
 40
0.1193926424992095
 40
0.1790889637488143
 40
0.1790889637488143
 40
0.2387852849984191
 40
0.2387852849984191
 40
0.2984816062480238
 40
0.2984816062480238
 40
0.3581779274976284
 40
0.3581779274976284
 40
0.4178742487472333
 40
0.4178742487472333
 40
0.4670420108190961
 40
0.4670420108190961
 40
0.4670420108190961
 40
0.4670420108190961
 10
-1.299999156218025
 20
-12.88589031301989
 30
0.0
 10
-1.299998873000267
 20
-12.9106357465824
 30
0.0
 10
-1.287306567679416
 20
-12.93535915706108
 30
0.0
 10
-1.217929438263724
 20
-12.9986710182158
 30
0.0
 10
-1.136608448552457
 20
-13.03303017657407
 30
0.0
 10
-0.9101918079219929
 20
-13.07455015007942
 30
0.0
 10
-0.7676431906348619
 20
-13.0812189020734
 30
0.0
 10
-0.4426848521906746
 20
-13.05453936679154
 30
0.0
 10
-0.2639306919267263
 20
-13.02146621457774
 30
0.0
 10
0.1025282085386289
 20
-12.90926535923204
 30
0.0
 10
0.2861105346734019
 20
-12.83137484800505
 30
0.0
 10
0.6297441146362961
 20
-12.6313427340847
 30
0.0
 10
0.7859297237713619
 20
-12.51142636538059
 30
0.0
 10
1.023447668585288
 20
-12.2608995676422
 30
0.0
 10
1.111136114151902
 20
-12.13798446031614
 30
0.0
 10
1.175499366920765
 20
-12.00784223438315
 30
0.0
  0
LINE
  5
3895
330
3814
100
AcDbEntity
  8
0
100
AcDbLine
 10
1.098410028819914
 20
-13.41697666147591
 30
0.0
 11
0.9347452005313922
 21
-13.62057847967085
 31
0.0
  0
SPLINE
  5
3896
330
3814
100
AcDbEntity
  8
0
100
AcDbSpline
210
0.0
220
0.0
230
1.0
 70
     8
 71
     3
 72
    10
 73
     6
 74
     0
 42
0.000000001
 43
0.0000000001
 40
-0.1044680806805188
 40
-0.1044680806805188
 40
-0.1044680806805188
 40
-0.1044680806805188
 40
-0.0540049185076246
 40
-0.0540049185076246
 40
-0.0150817134650054
 40
-0.0150817134650054
 40
-0.0150817134650054
 40
-0.0150817134650054
 10
1.594000053505892
 20
-12.766123088841
 30
0.0
 10
1.512587355486096
 20
-12.62705865752212
 30
0.0
 10
1.430920055715636
 20
-12.48406728430619
 30
0.0
 10
1.292745445285161
 20
-12.23263914080587
 30
0.0
 10
1.233121455100216
 20
-12.12083154132843
 30
0.0
 10
1.175499366920771
 20
-12.00784223438315
 30
0.0
  0
SPLINE
  5
3897
330
3814
100
AcDbEntity
  8
0
100
AcDbSpline
210
0.0
220
0.0
230
1.0
 70
     8
 71
     3
 72
     8
 73
     4
 74
     0
 42
0.000000001
 43
0.0000000001
 40
1.062825975034975
 40
1.062825975034975
 40
1.062825975034975
 40
1.062825975034975
 40
1.11158040242744
 40
1.11158040242744
 40
1.11158040242744
 40
1.11158040242744
 10
0.926123664803881
 20
-13.67971555934363
 30
0.0
 10
0.9485800041087275
 20
-13.52499261830157
 30
0.0
 10
0.9719171743658872
 20
-13.36990790108121
 30
0.0
 10
0.995538652023467
 20
-13.21491682689784
 30
0.0
  0
SPLINE
  5
3898
330
3814
100
AcDbEntity
  8
0
100
AcDbSpline
210
0.0
220
0.0
230
1.0
 70
     8
 71
     3
 72
     8
 73
     4
 74
     0
 42
0.000000001
 43
0.0000000001
 40
2.12898020460088
 40
2.12898020460088
 40
2.12898020460088
 40
2.12898020460088
 40
2.296623994976155
 40
2.296623994976155
 40
2.296623994976155
 40
2.296623994976155
 10
0.926123664803881
 20
-13.67971555934363
 30
0.0
 10
0.7708882344251967
 20
-14.1392771033533
 30
0.0
 10
0.6232633713785645
 20
-14.59309502493715
 30
0.0
 10
0.4932594790775771
 20
-15.03683139413823
 30
0.0
  0
SPLINE
  5
3899
330
3814
100
AcDbEntity
  8
0
100
AcDbSpline
210
0.0
220
0.0
230
1.0
 70
     8
 71
     3
 72
    10
 73
     6
 74
     0
 42
0.000000001
 43
0.0000000001
 40
-0.050767596960006
 40
-0.050767596960006
 40
-0.050767596960006
 40
-0.050767596960006
 40
-0.0252324285000553
 40
-0.0252324285000553
 40
-0.0002590135614559
 40
-0.0002590135614559
 40
-0.0002590135614559
 40
-0.0002590135614559
 10
0.8043464385855171
 20
-15.41392056872349
 30
0.0
 10
0.7532487730038391
 20
-15.3504021784984
 30
0.0
 10
0.7004416403547987
 20
-15.28519464418027
 30
0.0
 10
0.5983639152896454
 20
-15.1609717795
 30
0.0
 10
0.5449517308001774
 20
-15.09686771477368
 30
0.0
 10
0.4932594790775771
 20
-15.03683139413823
 30
0.0
  0
SPLINE
  5
389A
330
3814
100
AcDbEntity
  8
0
100
AcDbSpline
210
0.0
220
0.0
230
1.0
 70
     8
 71
     3
 72
    10
 73
     6
 74
     0
 42
0.000000001
 43
0.0000000001
 40
2.376625117372114
 40
2.376625117372114
 40
2.376625117372114
 40
2.376625117372114
 40
2.552974478438972
 40
2.552974478438972
 40
2.7477475869462
 40
2.7477475869462
 40
2.7477475869462
 40
2.7477475869462
 10
0.3200960979906315
 20
-15.66493011341246
 30
0.0
 10
0.2030839793813804
 20
-16.12094471170341
 30
0.0
 10
0.1101536511761907
 20
-16.56430041101694
 30
0.0
 10
-0.0136703697184463
 20
-17.46739783169836
 30
0.0
 10
-0.0401622946848477
 20
-17.92174899902736
 30
0.0
 10
-0.0000000000000092
 20
-18.37016933204543
 30
0.0
  0
SPLINE
  5
389B
330
3814
100
AcDbEntity
  8
0
100
AcDbSpline
210
0.0
220
0.0
230
1.0
 70
     8
 71
     3
 72
     8
 73
     4
 74
     0
 42
0.000000001
 43
0.0000000001
 40
1.239161192256575
 40
1.239161192256575
 40
1.239161192256575
 40
1.239161192256575
 40
1.373717851009436
 40
1.373717851009436
 40
1.373717851009436
 40
1.373717851009436
 10
1.175499366920771
 20
-12.00784223438315
 30
0.0
 10
1.233507333573846
 20
-11.5825807256763
 30
0.0
 10
1.292506523771314
 20
-11.07447359667455
 30
0.0
 10
1.299342320883275
 20
-10.62176202952844
 30
0.0
  0
LINE
  5
389C
330
3814
100
AcDbEntity
  8
0
100
AcDbLine
 10
1.298951735122308
 20
-10.64607278223624
 30
0.0
 11
1.484924240491741
 21
-10.66268317644562
 31
0.0
  0
LINE
  5
389D
330
3814
100
AcDbEntity
  8
0
100
AcDbLine
 10
1.484924240491741
 20
-10.66268317644562
 30
0.0
 11
1.289152003456348
 21
-10.90622715488811
 31
0.0
  0
LINE
  5
389E
330
3814
100
AcDbEntity
  8
0
100
AcDbLine
 10
0.2739988405683488
 20
-16.65688616319739
 30
0.0
 11
0.0
 21
-18.37016933204543
 31
0.0
  0
LINE
  5
389F
330
3814
100
AcDbEntity
  8
0
100
AcDbLine
 10
0.6231929597459681
 20
-16.22248276510521
 30
0.0
 11
0.2739988405683488
 21
-16.65688616319739
 31
0.0
  0
LINE
  5
38A0
330
3814
100
AcDbEntity
  8
0
100
AcDbLine
 10
0.3474106023231899
 20
-16.19785087837297
 30
0.0
 11
0.6231929597459683
 21
-16.22248276510521
 31
0.0
  0
LINE
  5
38A1
330
3814
100
AcDbEntity
  8
0
100
AcDbLine
 10
0.5786701279440698
 20
-14.75181171999895
 30
0.0
 11
0.5268120524566795
 21
-15.07607428881761
 31
0.0
  0
LINE
  5
38A2
330
3814
100
AcDbEntity
  8
0
100
AcDbLine
 10
0.4407014972776875
 20
-15.61451366517918
 30
0.0
 11
0.3474106023231899
 21
-16.19785087837297
 31
0.0
  0
LINE
  5
38A3
330
3814
100
AcDbEntity
  8
0
100
AcDbLine
 10
0.9667139268898424
 20
-13.40521404008974
 30
0.0
 11
1.098410028819914
 21
-13.41697666147591
 31
0.0
  0
LINE
  5
38A4
330
3814
100
AcDbEntity
  8
0
100
AcDbLine
 10
-0.8020661030688774
 20
14.47598115148432
 30
0.0
 11
-0.8020661030688764
 21
13.90969064800924
 31
0.0
  0
ELLIPSE
  5
38A5
330
3814
100
AcDbEntity
  8
0
100
AcDbEllipse
 10
-0.0000000000000021
 20
12.66135524164036
 30
0.0
 11
1.497078414746462
 21
-1.533054327329143
 31
0.0
210
0.0
220
0.0
230
1.0
 40
0.1894808634043142
 41
2.316274845745827
 42
2.77941956891088
  0
ELLIPSE
  5
38A6
330
3814
100
AcDbEntity
  8
0
100
AcDbEllipse
 10
-0.0000000000000021
 20
12.66135524164036
 30
0.0
 11
1.497078414746432
 21
1.533054327329172
 31
0.0
210
0.0
220
0.0
230
1.0
 40
0.1894808634043134
 41
0.3621730846745281
 42
0.8253178078407692
  0
LINE
  5
38A7
330
3814
100
AcDbEntity
  8
0
100
AcDbLine
 10
0.8020661030688739
 20
13.90969064800924
 30
0.0
 11
0.8020661030688746
 21
14.47598115148432
 31
0.0
  0
LINE
  5
38A8
330
3814
100
AcDbEntity
  8
0
100
AcDbLine
 10
2.709955647322594
 20
16.60345904199668
 30
0.0
 11
2.709955647322591
 21
16.06833575285848
 31
0.0
  0
LINE
  5
38A9
330
3814
100
AcDbEntity
  8
0
100
AcDbLine
 10
2.709955647322591
 20
16.06833575285848
 30
0.0
 11
1.297040849899457
 21
14.19546445133395
 31
0.0
  0
SPLINE
  5
38AA
330
3814
100
AcDbEntity
  8
0
100
AcDbSpline
210
0.0
220
0.0
230
1.0
 70
    12
 71
     2
 72
     6
 73
     3
 74
     0
 42
0.000000001
 43
0.0000000001
 40
0.0
 40
0.0
 40
0.0
 40
0.3819135332074239
 40
0.3819135332074239
 40
0.3819135332074239
 10
-2.214980900492009
 20
16.31768523867197
 30
0.0
 41
1.0
 10
-1.230861141095143
 20
15.02258463752935
 30
0.0
 41
1.089871223951229
 10
-0.8020661030688774
 20
14.47598115148432
 30
0.0
 41
1.0
  0
LINE
  5
38AB
330
3814
100
AcDbEntity
  8
0
100
AcDbLine
 10
-2.214980900492009
 20
16.31768523867197
 30
0.0
 11
-2.214980900492009
 21
15.78256194953377
 31
0.0
  0
LINE
  5
38AC
330
3814
100
AcDbEntity
  8
0
100
AcDbLine
 10
-2.214980900492009
 20
15.78256194953377
 30
0.0
 11
-0.8020661030688767
 21
13.90969064800924
 31
0.0
  0
ELLIPSE
  5
38AD
330
3814
100
AcDbEntity
  8
0
100
AcDbEllipse
 10
-0.0000000000000021
 20
12.66135524164036
 30
0.0
 11
-3.435917673188533
 21
-3.518485341411216
 31
0.0
210
0.0
220
0.0
230
1.0
 40
0.1894808634043134
 41
3.63517067868557
 42
3.835505521009219
  0
LINE
  5
38AE
330
3814
100
AcDbEntity
  8
0
100
AcDbLine
 10
2.214980900492009
 20
15.78256194953377
 30
0.0
 11
0.8020661030688739
 21
13.90969064800924
 31
0.0
  0
SPLINE
  5
38AF
330
3814
100
AcDbEntity
  8
0
100
AcDbSpline
210
0.0
220
0.0
230
1.0
 70
    12
 71
     2
 72
     6
 73
     3
 74
     0
 42
0.000000001
 43
0.0000000001
 40
0.0
 40
0.0
 40
0.0
 40
0.3819135332074239
 40
0.3819135332074239
 40
0.3819135332074239
 10
0.8020661030688746
 20
14.47598115148432
 30
0.0
 41
1.0
 10
1.230861141094934
 20
15.02258463752908
 30
0.0
 41
1.089871223951879
 10
2.214980900492008
 20
16.31768523867197
 30
0.0
 41
1.0
  0
LINE
  5
38B0
330
3814
100
AcDbEntity
  8
0
100
AcDbLine
 10
2.214980900492009
 20
15.78256194953377
 30
0.0
 11
2.214980900492008
 21
16.31768523867197
 31
0.0
  0
LINE
  5
38B1
330
3814
100
AcDbEntity
  8
0
100
AcDbLine
 10
-2.709955647322593
 20
16.06833575285848
 30
0.0
 11
-1.297040849899459
 21
14.19546445133395
 31
0.0
  0
LINE
  5
38B2
330
3814
100
AcDbEntity
  8
0
100
AcDbLine
 10
-2.709955647322593
 20
16.06833575285848
 30
0.0
 11
-2.709955647322592
 21
16.60345904199668
 31
0.0
  0
ELLIPSE
  5
38B3
330
3814
100
AcDbEntity
  8
0
100
AcDbEllipse
 10
-0.0000000000000021
 20
12.66135524164036
 30
0.0
 11
3.435917673188602
 21
-3.518485341411148
 31
0.0
210
0.0
220
0.0
230
1.0
 40
0.1894808634043141
 41
2.447679786166796
 42
2.648014628489915
  0
SPLINE
  5
38B4
330
3814
100
AcDbEntity
  8
0
100
AcDbSpline
210
0.0
220
0.0
230
1.0
 70
     8
 71
     3
 72
     8
 73
     4
 74
     0
 42
0.000000001
 43
0.0000000001
 40
0.0
 40
0.0
 40
0.0
 40
0.0
 40
0.0748440486664871
 40
0.0748440486664871
 40
0.0748440486664871
 40
0.0748440486664871
 10
1.484924240491741
 20
-10.66268317644562
 30
0.0
 10
1.447878326451271
 20
-10.63124456563844
 30
0.0
 10
1.409379655091684
 20
-10.60071605960428
 30
0.0
 10
1.369566849319376
 20
-10.57111583614084
 30
0.0
  0
SPLINE
  5
38B5
330
3814
100
AcDbEntity
  8
0
100
AcDbSpline
210
0.0
220
0.0
230
1.0
 70
     8
 71
     3
 72
    20
 73
    16
 74
     0
 42
0.000000001
 43
0.0000000001
 40
1.452927608033279
 40
1.452927608033279
 40
1.452927608033279
 40
1.452927608033279
 40
2.246609347304438
 40
2.246609347304438
 40
2.246609347304438
 40
3.367539326779596
 40
3.367539326779596
 40
3.367539326779596
 40
4.486988671613384
 40
4.486988671613384
 40
4.486988671613384
 40
5.605032957113118
 40
5.605032957113118
 40
5.605032957113118
 40
6.358029355845753
 40
6.358029355845753
 40
6.358029355845753
 40
6.358029355845753
 10
-1.295607140247589
 20
-9.984725543701355
 30
0.0
 10
-1.727579888919933
 20
-10.07867163503137
 30
0.0
 10
-2.026642039387616
 20
-10.27011169026063
 30
0.0
 10
-2.087403264935387
 20
-10.48237379958321
 30
0.0
 10
-2.173217358842466
 20
-10.7821551225916
 30
0.0
 10
-1.779542994139297
 20
-11.10110224559624
 30
0.0
 10
-1.11451491965529
 20
-11.1910091030018
 30
0.0
 10
-0.450365279705639
 20
-11.28079720258125
 30
0.0
 10
0.4515648802536181
 20
-11.13033404143947
 30
0.0
 10
1.115487198505454
 20
-10.73969466178562
 30
0.0
 10
1.778576205045018
 20
-10.34954558703852
 30
0.0
 10
2.171707917118681
 20
-9.731663240168284
 30
0.0
 10
2.08793482308722
 20
-9.132274824238599
 30
0.0
 10
2.031514125862168
 20
-8.728590171948304
 30
0.0
 10
1.760670579546078
 20
-8.343273181558522
 30
0.0
 10
1.364838996729766
 20
-8.042090999403082
 30
0.0
  0
SPLINE
  5
38B6
330
3814
100
AcDbEntity
  8
0
100
AcDbSpline
210
0.0
220
0.0
230
1.0
 70
     8
 71
     3
 72
    23
 73
    19
 74
     0
 42
0.000000001
 43
0.0000000001
 40
7.736112915212864
 40
7.736112915212864
 40
7.736112915212864
 40
7.736112915212864
 40
7.837203894020857
 40
7.837203894020857
 40
7.837203894020857
 40
8.948265939366692
 40
8.948265939366692
 40
8.948265939366692
 40
10.08762854713642
 40
10.08762854713642
 40
10.08762854713642
 40
11.22252781260302
 40
11.22252781260302
 40
11.22252781260302
 40
12.35331174683436
 40
12.35331174683436
 40
12.35331174683436
 40
12.64121466302533
 40
12.64121466302533
 40
12.64121466302533
 40
12.64121466302533
 10
-1.299732125205429
 20
-7.451867747069456
 30
0.0
 10
-1.355461724295865
 20
-7.463286089264111
 30
0.0
 10
-1.408932828206796
 20
-7.476429341230068
 30
0.0
 10
-1.459802743894229
 20
-7.491255147386453
 30
0.0
 10
-2.018899443092282
 20
-7.654201344032771
 30
0.0
 10
-2.237045020462366
 20
-8.005248420583708
 30
0.0
 10
-2.000612819203618
 20
-8.283832785539161
 30
0.0
 10
-1.758158304160712
 20
-8.569513148637803
 30
0.0
 10
-1.048278773742667
 20
-8.756320156524992
 30
0.0
 10
-0.256706252364516
 20
-8.659613366194914
 30
0.0
 10
0.5317653605788926
 20
-8.563285415318869
 30
0.0
 10
1.360025993883655
 20
-8.182893939293238
 30
0.0
 10
1.780968572247083
 20
-7.641514443815489
 30
0.0
 10
2.200384743647618
 20
-7.102098079353567
 30
0.0
 10
2.194039084459835
 20
-6.422914467171576
 30
0.0
 10
1.765336258813621
 20
-5.886899998467782
 30
0.0
 10
1.656186500007796
 20
-5.750428189850094
 30
0.0
 10
1.521089142274721
 20
-5.624502857839126
 30
0.0
 10
1.367380989010794
 20
-5.511092139021629
 30
0.0
  0
SPLINE
  5
38B7
330
3814
100
AcDbEntity
  8
0
100
AcDbSpline
210
0.0
220
0.0
230
1.0
 70
     8
 71
     3
 72
    20
 73
    16
 74
     0
 42
0.000000001
 43
0.0000000001
 40
14.01929822239245
 40
14.01929822239245
 40
14.01929822239245
 40
14.01929822239245
 40
14.60386484502568
 40
14.60386484502568
 40
14.60386484502568
 40
15.7242729621939
 40
15.7242729621939
 40
15.7242729621939
 40
16.8418459196635
 40
16.8418459196635
 40
16.8418459196635
 40
17.9568814821853
 40
17.9568814821853
 40
17.9568814821853
 40
18.92439997020535
 40
18.92439997020535
 40
18.92439997020535
 40
18.92439997020535
 10
-1.294614378512238
 20
-4.924033425111562
 30
0.0
 10
-1.615415994569512
 20
-4.9918798527692
 30
0.0
 10
-1.866036669801341
 20
-5.111182468533228
 30
0.0
 10
-1.994251289256215
 20
-5.257039278785073
 30
0.0
 10
-2.239993510612918
 20
-5.536595359859788
 30
0.0
 10
-2.024053651416791
 20
-5.892306056311289
 30
0.0
 10
-1.460509158762225
 20
-6.056775248697583
 30
0.0
 10
-0.8983906988268707
 20
-6.220828256642887
 30
0.0
 10
-0.0181830233216107
 20
-6.179236225269497
 30
0.0
 10
0.7170949461897597
 20
-5.874936640412782
 30
0.0
 10
1.450703502896713
 20
-5.571327952936933
 30
0.0
 10
2.004356678688007
 20
-5.013784545506765
 30
0.0
 10
2.087927974585528
 20
-4.416010588694074
 30
0.0
 10
2.160442947709594
 20
-3.897320984243126
 30
0.0
 10
1.874826029418193
 20
-3.365145008696881
 30
0.0
 10
1.36774643417641
 20
-2.978099471072157
 30
0.0
  0
SPLINE
  5
38B8
330
3814
100
AcDbEntity
  8
0
100
AcDbSpline
210
0.0
220
0.0
230
1.0
 70
     8
 71
     3
 72
    20
 73
    16
 74
     0
 42
0.000000001
 43
0.0000000001
 40
20.30248352957204
 40
20.30248352957204
 40
20.30248352957204
 40
20.30248352957204
 40
21.34650471094466
 40
21.34650471094466
 40
21.34650471094466
 40
22.46314480494605
 40
22.46314480494605
 40
22.46314480494605
 40
23.59786424686289
 40
23.59786424686289
 40
23.59786424686289
 40
24.71808550858421
 40
24.71808550858421
 40
24.71808550858421
 40
25.25060994747996
 40
25.25060994747996
 40
25.25060994747996
 40
25.25060994747996
 10
-1.299502864284374
 20
-2.389257096107337
 30
0.0
 10
-1.86934611135639
 20
-2.511585853912792
 30
0.0
 10
-2.181757967953709
 20
-2.813228701136947
 30
0.0
 10
-2.079231960247552
 20
-3.090799753629562
 30
0.0
 10
-1.969574557768348
 20
-3.387677797559587
 30
0.0
 10
-1.390997146117653
 20
-3.635068415098485
 30
0.0
 10
-0.647422945053767
 20
-3.624254300820952
 30
0.0
 10
0.1081903514663945
 20
-3.613265096883404
 30
0.0
 10
0.9961673048248623
 20
-3.327823063524504
 30
0.0
 10
1.537292456749086
 20
-2.839742573610091
 30
0.0
 10
2.071503714655883
 20
-2.357898232149047
 30
0.0
 10
2.241428301180296
 20
-1.695611093444919
 30
0.0
 10
1.957323080432294
 20
-1.123213743344659
 30
0.0
 10
1.822266749655544
 20
-0.8511107328919065
 30
0.0
 10
1.587702362187716
 20
-0.6041149602857643
 30
0.0
 10
1.294824871367403
 20
-0.399770368016179
 30
0.0
  0
SPLINE
  5
38B9
330
3814
100
AcDbEntity
  8
0
100
AcDbSpline
210
0.0
220
0.0
230
1.0
 70
     8
 71
     3
 72
    17
 73
    13
 74
     0
 42
0.000000001
 43
0.0000000001
 40
2.356194490192344
 40
2.356194490192344
 40
2.356194490192344
 40
2.356194490192344
 40
2.532545977075433
 40
2.532545977075433
 40
2.532545977075433
 40
3.79582237523937
 40
3.79582237523937
 40
3.79582237523937
 40
5.057247498692961
 40
5.057247498692961
 40
5.057247498692961
 40
5.497787143782137
 40
5.497787143782137
 40
5.497787143782137
 40
5.497787143782137
 10
-1.298188122261744
 20
-10.19410268893955
 30
0.0
 10
-1.299193548791272
 20
-10.21430696371089
 30
0.0
 10
-1.293244290751234
 20
-10.23458267006999
 30
0.0
 10
-1.279837435243546
 20
-10.2543382185091
 30
0.0
 10
-1.183798754562138
 20
-10.39585513178844
 30
0.0
 10
-0.7127477251893238
 20
-10.48616383329678
 30
0.0
 10
-0.1700304270293118
 20
-10.35786706792662
 30
0.0
 10
0.3718915433541252
 20
-10.22975831569237
 30
0.0
 10
0.9427853403650384
 20
-9.880503391806803
 30
0.0
 10
1.175878177956371
 20
-9.425660011700154
 30
0.0
 10
1.257283434626838
 20
-9.266810677310219
 30
0.0
 10
1.295278357121514
 20
-9.097803226097118
 30
0.0
 10
1.293212416488784
 20
-8.928730903831256
 30
0.0
  0
SPLINE
  5
38BA
330
3814
100
AcDbEntity
  8
0
100
AcDbSpline
210
0.0
220
0.0
230
1.0
 70
     8
 71
     3
 72
    17
 73
    13
 74
     0
 42
0.000000001
 43
0.0000000001
 40
8.63937979737193
 40
8.63937979737193
 40
8.63937979737193
 40
8.63937979737193
 40
8.905395890937752
 40
8.905395890937752
 40
8.905395890937752
 40
10.19008331181415
 40
10.19008331181415
 40
10.19008331181415
 40
11.46910811659566
 40
11.46910811659566
 40
11.46910811659566
 40
11.78097245096172
 40
11.78097245096172
 40
11.78097245096172
 40
11.78097245096172
 10
-1.296270143124831
 20
-7.663237438818932
 30
0.0
 10
-1.298093852203002
 20
-7.693698446273899
 30
0.0
 10
-1.28457790128064
 20
-7.724223416796784
 30
0.0
 10
-1.254273641922552
 20
-7.752714793619497
 30
0.0
 10
-1.107923470869165
 20
-7.890309902685848
 30
0.0
 10
-0.5827044093346575
 20
-7.954329217260154
 30
0.0
 10
-0.0261188985172579
 20
-7.788277546673221
 30
0.0
 10
0.5280133073011805
 20
-7.622957794876166
 30
0.0
 10
1.067231446773906
 20
-7.229229051422736
 30
0.0
 10
1.23729213904773
 20
-6.752922645612424
 30
0.0
 10
1.278757999912615
 20
-6.636784960364248
 30
0.0
 10
1.29746247482145
 20
-6.517225722872312
 30
0.0
 10
1.295420506278596
 20
-6.397696732441366
 30
0.0
  0
SPLINE
  5
38BB
330
3814
100
AcDbEntity
  8
0
100
AcDbSpline
210
0.0
220
0.0
230
1.0
 70
     8
 71
     3
 72
    17
 73
    13
 74
     0
 42
0.000000001
 43
0.0000000001
 40
14.92256510455152
 40
14.92256510455152
 40
14.92256510455152
 40
14.92256510455152
 40
15.27708395735274
 40
15.27708395735274
 40
15.27708395735274
 40
16.53824548918786
 40
16.53824548918786
 40
16.53824548918786
 40
17.83483978874056
 40
17.83483978874056
 40
17.83483978874056
 40
18.06415775814131
 40
18.06415775814131
 40
18.06415775814131
 40
18.06415775814131
 10
-1.294646347476539
 20
-5.132122420719613
 30
0.0
 10
-1.29680162188434
 20
-5.17285446699923
 30
0.0
 10
-1.272486908655605
 20
-5.213581987874524
 30
0.0
 10
-1.219157709132537
 20
-5.249156499364393
 30
0.0
 10
-1.029444991654676
 20
-5.375708881699909
 30
0.0
 10
-0.4876232502686692
 20
-5.413865662426626
 30
0.0
 10
0.0583296856332282
 20
-5.230358248855773
 30
0.0
 10
0.6196213573546285
 20
-5.04169513128081
 30
0.0
 10
1.138250407459106
 20
-4.618850468483164
 30
0.0
 10
1.265968153036848
 20
-4.128845699359717
 30
0.0
 10
1.288556540231234
 20
-4.042182586086093
 30
0.0
 10
1.298595806773158
 20
-3.954268567459959
 30
0.0
 10
1.297091097756271
 20
-3.866429451776429
 30
0.0
  0
SPLINE
  5
38BC
330
3814
100
AcDbEntity
  8
0
100
AcDbSpline
210
0.0
220
0.0
230
1.0
 70
     8
 71
     3
 72
    17
 73
    13
 74
     0
 42
0.000000001
 43
0.0000000001
 40
21.2057504117311
 40
21.2057504117311
 40
21.2057504117311
 40
21.2057504117311
 40
21.65608136634263
 40
21.65608136634263
 40
21.65608136634263
 40
22.95055368781548
 40
22.95055368781548
 40
22.95055368781548
 40
24.22209047515732
 40
24.22209047515732
 40
24.22209047515732
 40
24.3473430653209
 40
24.3473430653209
 40
24.3473430653209
 40
24.3473430653209
 10
-1.292991154164275
 20
-2.600877169484889
 30
0.0
 10
-1.295052824340171
 20
-2.652773294898911
 30
0.0
 10
-1.255332837580652
 20
-2.704599326181957
 30
0.0
 10
-1.170394028950279
 20
-2.745562024305572
 30
0.0
 10
-0.9262381794245797
 20
-2.863308935529125
 30
0.0
 10
-0.3273980348897769
 20
-2.866517004291431
 30
0.0
 10
0.225069219071906
 20
-2.636624276942494
 30
0.0
 10
0.7677478268421547
 20
-2.410804801996961
 30
0.0
 10
1.220982210611976
 20
-1.965307207962392
 30
0.0
 10
1.289815987156275
 20
-1.478936352940638
 30
0.0
 10
1.296596450677852
 20
-1.43102644582824
 30
0.0
 10
1.299582705973345
 20
-1.382971448320151
 30
0.0
 10
1.298977554192826
 20
-1.334975954061576
 30
0.0
  0
SPLINE
  5
38BD
330
3814
100
AcDbEntity
  8
0
100
AcDbSpline
210
0.0
220
0.0
230
1.0
 70
     8
 71
     3
 72
    17
 73
    13
 74
     0
 42
0.000000001
 43
0.0000000001
 40
0.014351569397334
 40
0.014351569397334
 40
0.014351569397334
 40
0.014351569397334
 40
1.140855774200599
 40
1.140855774200599
 40
1.140855774200599
 40
2.289013738354336
 40
2.289013738354336
 40
2.289013738354336
 40
3.482874115900787
 40
3.482874115900787
 40
3.482874115900787
 40
3.820515991032619
 40
3.820515991032619
 40
3.820515991032619
 40
3.820515991032619
 10
-1.29997718596219
 20
0.1403739171091556
 30
0.0
 10
-1.870322657094299
 20
-0.024159883154713
 30
0.0
 10
-2.055054576536547
 20
-0.3614745087527793
 30
0.0
 10
-1.825669843649227
 20
-0.5963911119372601
 30
0.0
 10
-1.591875857974891
 20
-0.8358233019887006
 30
0.0
 10
-0.9556368588310682
 20
-0.9495723044476456
 30
0.0
 10
-0.3238567037382928
 20
-0.8237736834903985
 30
0.0
 10
0.3330714525205459
 20
-0.6929676500004534
 30
0.0
 10
0.9416849766578744
 20
-0.3102186141894236
 30
0.0
 10
1.17947701280527
 20
0.1460067358061057
 30
0.0
 10
1.246728217792262
 20
0.2750342046393905
 30
0.0
 10
1.286758105584774
 20
0.4087155956916089
 30
0.0
 10
1.300547960101851
 20
0.541644545669231
 30
0.0
  0
SPLINE
  5
38BE
330
3814
100
AcDbEntity
  8
0
100
AcDbSpline
210
0.0
220
0.0
230
1.0
 70
     8
 71
     3
 72
    22
 73
    18
 74
     0
 42
0.000000001
 43
0.0000000001
 40
0.1244991907377238
 40
0.1244991907377238
 40
0.1244991907377238
 40
0.1244991907377238
 40
0.1652958281871691
 40
0.1652958281871691
 40
0.2203944375828921
 40
0.2203944375828921
 40
0.2754930469786151
 40
0.2754930469786151
 40
0.3305916563743382
 40
0.3305916563743382
 40
0.3856902657700613
 40
0.3856902657700613
 40
0.4407888751657844
 40
0.4407888751657844
 40
0.4929868649324296
 40
0.4929868649324296
 40
0.508534608265911
 40
0.508534608265911
 40
0.508534608265911
 40
0.508534608265911
 10
-1.299999677472281
 20
-0.1552723723360994
 30
0.0
 10
-1.299999092520623
 20
-0.1994608198387904
 30
0.0
 10
-1.28048027706613
 20
-0.2434921615917895
 30
0.0
 10
-1.189729364878872
 20
-0.3398464645010857
 30
0.0
 10
-1.103849338314632
 20
-0.3885015493573296
 30
0.0
 10
-0.8750922905268417
 20
-0.4596908277883061
 30
0.0
 10
-0.7345892471415123
 20
-0.4814720041311161
 30
0.0
 10
-0.4184755670744259
 20
-0.4879797403633801
 30
0.0
 10
-0.2461454713775049
 20
-0.4726245303079569
 30
0.0
 10
0.1060368684228778
 20
-0.3997989219495168
 30
0.0
 10
0.2822342608932009
 20
-0.3430700533713615
 30
0.0
 10
0.6133453157998874
 20
-0.1891307637589335
 30
0.0
 10
0.7648227986127586
 20
-0.0935036479643481
 30
0.0
 10
1.014394505532886
 20
0.1242818049253702
 30
0.0
 10
1.112555073268969
 20
0.2427620765730665
 30
0.0
 10
1.202788752055525
 20
0.408107947629226
 30
0.0
 10
1.220842052730388
 20
0.4466367943564121
 30
0.0
 10
1.236182506136644
 20
0.4856294674340101
 30
0.0
  0
SPLINE
  5
38BF
330
3814
100
AcDbEntity
  8
0
100
AcDbSpline
210
0.0
220
0.0
230
1.0
 70
     8
 71
     3
 72
     8
 73
     4
 74
     0
 42
0.000000001
 43
0.0000000001
 40
0.315278816220506
 40
0.315278816220506
 40
0.315278816220506
 40
0.315278816220506
 40
0.327550681976307
 40
0.327550681976307
 40
0.327550681976307
 40
0.327550681976307
 10
-0.7994229179980383
 20
-0.8777878576373598
 30
0.0
 10
-0.8285836117266878
 20
-0.8787912619365933
 30
0.0
 10
-0.856719244101537
 20
-0.8790744655181992
 30
0.0
 10
-0.8837625262069364
 20
-0.8786934474847974
 30
0.0
  0
SPLINE
  5
38C0
330
3814
100
AcDbEntity
  8
0
100
AcDbSpline
210
0.0
220
0.0
230
1.0
 70
     8
 71
     3
 72
    12
 73
     8
 74
     0
 42
0.000000001
 43
0.0000000001
 40
0.1208536808685608
 40
0.1208536808685608
 40
0.1208536808685608
 40
0.1208536808685608
 40
0.124598926762099
 40
0.124598926762099
 40
0.163974127357633
 40
0.163974127357633
 40
0.193877165174122
 40
0.193877165174122
 40
0.193877165174122
 40
0.193877165174122
 10
-0.3834626666040758
 20
-15.83524289044981
 30
0.0
 10
-0.3913741710055271
 20
-15.83703841326406
 30
0.0
 10
-0.3991424455884965
 20
-15.8387507529323
 30
0.0
 10
-0.4868604020160227
 20
-15.85754668127887
 30
0.0
 10
-0.5481491956772454
 20
-15.86542228406617
 30
0.0
 10
-0.6141091707815177
 20
-15.87368629803524
 30
0.0
 10
-0.6281817875718016
 20
-15.87535570687529
 30
0.0
 10
-0.6274012915446568
 20
-15.87846365690682
 30
0.0
  0
SPLINE
  5
38C1
330
3814
100
AcDbEntity
  8
0
100
AcDbSpline
210
0.0
220
0.0
230
1.0
 70
     8
 71
     3
 72
    14
 73
    10
 74
     0
 42
0.000000001
 43
0.0000000001
 40
0.1219096538423546
 40
0.1219096538423546
 40
0.1219096538423546
 40
0.1219096538423546
 40
1.399546120906669
 40
1.399546120906669
 40
1.399546120906669
 40
2.680930343374184
 40
2.680930343374184
 40
2.680930343374184
 40
2.748714261154546
 40
2.748714261154546
 40
2.748714261154546
 40
2.748714261154546
 10
0.8043464385855113
 20
-15.41392056872349
 30
0.0
 10
0.2892539652763266
 20
-15.76034589477262
 30
0.0
 10
-0.3829182211583789
 20
-15.87798108745358
 30
0.0
 10
-0.7729398656384334
 20
-15.83744956477706
 30
0.0
 10
-1.164105580253573
 20
-15.79679914894351
 30
0.0
 10
-1.2484819065148
 20
-15.62161182429976
 30
0.0
 10
-1.029861546298402
 20
-15.55001011407848
 30
0.0
 10
-1.01829675233404
 20
-15.54622245667372
 30
0.0
 10
-1.005975386971558
 20
-15.5427777735586
 30
0.0
 10
-0.9929499358950518
 20
-15.53968272295956
 30
0.0
  0
SPLINE
  5
38C2
330
3814
100
AcDbEntity
  8
0
100
AcDbSpline
210
0.0
220
0.0
230
1.0
 70
     8
 71
     3
 72
     8
 73
     4
 74
     0
 42
0.000000001
 43
0.0000000001
 40
4.30845085482373
 40
4.30845085482373
 40
4.30845085482373
 40
4.30845085482373
 40
4.661718131133248
 40
4.661718131133248
 40
4.661718131133248
 40
4.661718131133248
 10
0.3856020640288813
 20
-15.9569731175411
 30
0.0
 10
0.4784723730699576
 20
-16.03769921251246
 30
0.0
 10
0.5592928702584339
 20
-16.12720118419481
 30
0.0
 10
0.6231929597459711
 20
-16.22248276510521
 30
0.0
  0
SPLINE
  5
38C3
330
3814
100
AcDbEntity
  8
0
100
AcDbSpline
210
0.0
220
0.0
230
1.0
 70
     8
 71
     3
 72
    18
 73
    14
 74
     0
 42
0.000000001
 43
0.0000000001
 40
0.2958652615807669
 40
0.2958652615807669
 40
0.2958652615807669
 40
0.2958652615807669
 40
0.3146384564017632
 40
0.3146384564017632
 40
0.3573075434508644
 40
0.3573075434508644
 40
0.4010760595425413
 40
0.4010760595425413
 40
0.4459915586278222
 40
0.4459915586278222
 40
0.4777634970719761
 40
0.4777634970719761
 40
0.4902538628413931
 40
0.4902538628413931
 40
0.4902538628413931
 40
0.4902538628413931
 10
-0.7381144847796467
 20
-15.43876300103829
 30
0.0
 10
-0.7376603864039298
 20
-15.44056856444536
 30
0.0
 10
-0.7317015259459991
 20
-15.44275642362448
 30
0.0
 10
-0.6941665562199764
 20
-15.44890214463683
 30
0.0
 10
-0.6404300996637648
 20
-15.45141316996885
 30
0.0
 10
-0.4844649007035499
 20
-15.43905461293678
 30
0.0
 10
-0.3832683407827115
 20
-15.42389176482443
 30
0.0
 10
-0.1492322384498858
 20
-15.3647720091161
 30
0.0
 10
-0.0188711692096325
 20
-15.32087307431904
 30
0.0
 10
0.20720371889367
 20
-15.21752325300927
 30
0.0
 10
0.300455058923603
 20
-15.16705075445311
 30
0.0
 10
0.4252229065289086
 20
-15.08589189339755
 30
0.0
 10
0.4596945305355826
 20
-15.0618963225065
 30
0.0
 10
0.4932594790777707
 20
-15.03683139413814
 30
0.0
  0
SPLINE
  5
38C4
330
3814
100
AcDbEntity
  8
0
100
AcDbSpline
210
0.0
220
0.0
230
1.0
 70
     8
 71
     3
 72
     8
 73
     4
 74
     0
 42
0.000000001
 43
0.0000000001
 40
0.0009140211533655
 40
0.0009140211533655
 40
0.0009140211533655
 40
0.0009140211533655
 40
0.0293782063434546
 40
0.0293782063434546
 40
0.0293782063434546
 40
0.0293782063434546
 10
-0.6270730821872944
 20
-15.87977225628821
 30
0.0
 10
-0.6687545649172467
 20
-15.86121129566325
 30
0.0
 10
-0.7027657451674861
 20
-15.84909496860986
 30
0.0
 10
-0.7267219687726082
 20
-15.84153104193964
 30
0.0
  0
SPLINE
  5
38C5
330
3814
100
AcDbEntity
  8
0
100
AcDbSpline
210
0.0
220
0.0
230
1.0
 70
     8
 71
     3
 72
    10
 73
     6
 74
     0
 42
0.000000001
 43
0.0000000001
 40
0.0
 40
0.0
 40
0.0
 40
0.0
 40
0.048812255405078
 40
0.048812255405078
 40
0.0776633884751101
 40
0.0776633884751101
 40
0.0776633884751101
 40
0.0776633884751101
 10
-0.9930314401121552
 20
-15.53949326624247
 30
0.0
 10
-0.9747492018237027
 20
-15.53496367022756
 30
0.0
 10
-0.9308999039100052
 20
-15.52284439795815
 30
0.0
 10
-0.8313240468612569
 20
-15.48291071912341
 30
0.0
 10
-0.7873672864858453
 20
-15.46337420599871
 30
0.0
 10
-0.7383239028335577
 20
-15.43794382148008
 30
0.0
  0
ENDBLK
  5
3816
330
3814
100
AcDbEntity
  8
0
100
AcDbBlockEnd
  0
ENDSEC
  0
SECTION
  2
ENTITIES
  0
INSERT
  5
38C6
330
1F
100
AcDbEntity
  8
0
100
AcDbBlockReference
  2
DSIX442X45T-20-Front
 10
0.0
 20
0.0
 30
0.0
  0
INSERT
  5
38C7
330
1F
100
AcDbEntity
  8
0
100
AcDbBlockReference
  2
DSIX442X45T-20-Top
 10
0.0
 20
-57.57630720839114
 30
0.0
  0
INSERT
  5
38C8
330
1F
100
AcDbEntity
  8
0
100
AcDbBlockReference
  2
DSIX442X45T-20-ISO
 10
16.07630720839114
 20
-74.46920996025709
 30
0.0
  0
MTEXT
  5
38C9
330
1F
100
AcDbEntity
  8
0
100
AcDbMText
 10
0.0
 20
-70.15261441678228
 30
0.0
 40
1.143300655308285
 41
0.0
 71
     5
 72
     5
  1
DSIX44.2X45T-20
 73
     1
 44
1.0
1001
ACAD
1000
MTEXTBEGIN
1070
    73
1070
     1
1070
    44
1040
1.0
1070
    74
1070
     0
1000
MTEXTEND
  0
ENDSEC
  0
SECTION
  2
OBJECTS
  0
DICTIONARY
  5
C
330
0
100
AcDbDictionary
281
     1
  3
ACAD_CIP_PREVIOUS_PRODUCT_INFO
350
216
  3
ACAD_COLOR
350
6B
  3
ACAD_DETAILVIEWSTYLE
350
21B
  3
ACAD_GROUP
350
D
  3
ACAD_LAYOUT
350
1A
  3
ACAD_MATERIAL
350
6A
  3
ACAD_MLEADERSTYLE
350
12D
  3
ACAD_MLINESTYLE
350
17
  3
ACAD_PLOTSETTINGS
350
19
  3
ACAD_PLOTSTYLENAME
350
E
  3
ACAD_SCALELIST
350
10C
  3
ACAD_SECTIONVIEWSTYLE
350
219
  3
ACAD_TABLESTYLE
350
7E
  3
ACAD_VISUALSTYLE
350
EF
  3
ACDB_RECOMPOSE_DATA
350
39CA
  3
AcDbVariableDictionary
350
5E
  3
DWGPROPS
350
39CB
  0
DICTIONARY
  5
391A
330
8
100
AcDbDictionary
280
     1
281
     1
  0
DICTIONARY
  5
1FF
330
2
100
AcDbDictionary
280
     1
281
     1
  3
ACAD_LAYERSTATES
360
200
  0
DICTIONARY
  5
13C
330
10
100
AcDbDictionary
280
     1
281
     1
  0
DICTIONARY
  5
1CE
330
1F
100
AcDbDictionary
280
     1
281
     1
  3
ACAD_LAYOUTSELFREF
360
3922
  0
DICTIONARY
  5
38CD
330
D2
100
AcDbDictionary
280
     1
281
     1
  3
ACAD_LAYOUTSELFREF
360
392B
  0
DICTIONARY
  5
38CF
330
D6
100
AcDbDictionary
280
     1
281
     1
  3
ACAD_LAYOUTSELFREF
360
392E
  0
XRECORD
  5
216
102
{ACAD_REACTORS
330
C
102
}
330
C
100
AcDbXrecord
280
     1
300
ACD
300
2021
300
87393ACD_2021_0F
  0
DICTIONARY
  5
6B
102
{ACAD_REACTORS
330
C
102
}
330
C
100
AcDbDictionary
281
     1
  0
DICTIONARY
  5
21B
102
{ACAD_REACTORS
330
C
102
}
330
C
100
AcDbDictionary
281
     1
  3
Metric50
350
21C
  0
DICTIONARY
  5
D
102
{ACAD_REACTORS
330
C
102
}
330
C
100
AcDbDictionary
281
     1
  0
DICTIONARY
  5
1A
102
{ACAD_REACTORS
330
C
102
}
330
C
100
AcDbDictionary
281
     1
  3
Layout1
350
D3
  3
Layout2
350
D7
  3
Model
350
22
  0
DICTIONARY
  5
6A
102
{ACAD_REACTORS
330
C
102
}
330
C
100
AcDbDictionary
281
     1
  3
ByBlock
350
ED
  3
ByLayer
350
EC
  3
Global
350
EE
  0
DICTIONARY
  5
12D
102
{ACAD_REACTORS
330
C
102
}
330
C
100
AcDbDictionary
281
     1
  3
Standard
350
12E
  0
DICTIONARY
  5
17
102
{ACAD_REACTORS
330
C
102
}
330
C
100
AcDbDictionary
281
     1
  3
Standard
350
18
  0
DICTIONARY
  5
19
102
{ACAD_REACTORS
330
C
102
}
330
C
100
AcDbDictionary
281
     1
  0
ACDBDICTIONARYWDFLT
  5
E
102
{ACAD_REACTORS
330
C
102
}
330
C
100
AcDbDictionary
281
     1
  3
Normal
350
F
100
AcDbDictionaryWithDefault
340
F
  0
DICTIONARY
  5
10C
102
{ACAD_REACTORS
330
C
102
}
330
C
100
AcDbDictionary
281
     1
  3
A0
350
10D
  3
A1
350
1BE
  3
A2
350
1BF
  3
A3
350
1C0
  3
A4
350
1C1
  3
A5
350
1C2
  3
A6
350
1C3
  3
A7
350
1C4
  3
A8
350
1C5
  3
A9
350
1C6
  3
B0
350
1C7
  3
B1
350
1C8
  3
B2
350
1C9
  3
B3
350
1CA
  3
B4
350
1CB
  3
B5
350
1CC
  3
B6
350
1CD
  0
DICTIONARY
  5
219
102
{ACAD_REACTORS
330
C
102
}
330
C
100
AcDbDictionary
281
     1
  3
Metric50
350
21A
  0
DICTIONARY
  5
7E
102
{ACAD_REACTORS
330
C
102
}
330
C
100
AcDbDictionary
281
     1
  3
Standard
350
7F
  0
DICTIONARY
  5
EF
102
{ACAD_REACTORS
330
C
102
}
330
C
100
AcDbDictionary
281
     1
  3
2dWireframe
350
F5
  3
Basic
350
F4
  3
Brighten
350
FB
  3
ColorChange
350
FF
  3
Conceptual
350
F8
  3
Dim
350
FA
  3
EdgeColorOff
350
1E6
  3
Facepattern
350
FE
  3
Flat
350
F0
  3
FlatWithEdges
350
F1
  3
Gouraud
350
F2
  3
GouraudWithEdges
350
F3
  3
Hidden
350
F7
  3
JitterOff
350
1E4
  3
Linepattern
350
FD
  3
OverhangOff
350
1E5
  3
Realistic
350
F9
  3
Shaded
350
1F3
  3
Shaded with edges
350
1F2
  3
Shades of Gray
350
1EF
  3
Sketchy
350
1F0
  3
Thicken
350
FC
  3
Wireframe
350
F6
  3
X-Ray
350
1F1
  0
XRECORD
  5
39CA
102
{ACAD_REACTORS
330
C
102
}
330
C
100
AcDbXrecord
280
     1
 90
        1
330
7F
  0
DICTIONARY
  5
5E
102
{ACAD_REACTORS
330
C
102
}
330
C
100
AcDbDictionary
281
     1
  3
CANNOSCALE
350
146
  3
CENTEREXE
350
259
  3
CENTERLTYPEFILE
350
25A
  3
CMLEADERSTYLE
350
145
  3
CTABLESTYLE
350
84
  3
CVIEWDETAILSTYLE
350
227
  3
CVIEWSECTIONSTYLE
350
228
  3
DIMASSOC
350
5F
  3
HIDETEXT
350
63
  3
INDEXCTL
350
3977
  3
LAYEREVAL
350
1AE
  3
LAYERNOTIFY
350
1AF
  3
LIGHTINGUNITS
350
3975
  3
MSLTSCALE
350
3974
  3
PSOLHEIGHT
350
39C7
  3
PSOLWIDTH
350
39C6
  3
SORTENTS
350
3976
  3
XCLIPFRAME
350
39C8
  0
XRECORD
  5
39CB
102
{ACAD_REACTORS
330
C
102
}
330
C
100
AcDbXrecord
280
     1
  1
DWGPROPS COOKIE
  2

  3

  4

  6

  7

  8
KhuNguyen
  9

300
=
301
=
302
=
303
=
304
=
305
=
306
=
307
=
308
=
309
=
 40
0.0017939814814815
 41
2460476.646099537
 42
2460476.692083333
  1

 90
        0
  0
DICTIONARY
  5
200
102
{ACAD_REACTORS
330
1FF
102
}
330
1FF
100
AcDbDictionary
281
     1
  0
XRECORD
  5
3922
102
{ACAD_REACTORS
330
1CE
102
}
330
1CE
100
AcDbXrecord
280
     1
340
1F
  0
XRECORD
  5
392B
102
{ACAD_REACTORS
330
38CD
102
}
330
38CD
100
AcDbXrecord
280
     1
340
D2
  0
XRECORD
  5
392E
102
{ACAD_REACTORS
330
38CF
102
}
330
38CF
100
AcDbXrecord
280
     1
340
D6
  0
ACDBDETAILVIEWSTYLE
  5
21C
102
{ACAD_XDICTIONARY
360
3A0A
102
}
102
{ACAD_REACTORS
330
21B
102
}
330
21B
100
AcDbModelDocViewStyle
 70
     0
  3
Metric50
290
     0
100
AcDbDetailViewStyle
 70
     0
 71
     0
 90
        3
 71
     1
340
11
 40
5.0
340
0
 40
5.0
300

 40
0.0
280
     1
 71
     2
340
16
 90
       25
 71
     3
340
11
 40
5.0
 90
        0
 40
15.0
 90
        1
300
%<\AcVar ViewDetailId>% (%<\AcVar ViewScale \f "%sn">%)
 71
     4
340
16
 90
       25
340
16
 90
       25
280
     0
  0
LAYOUT
  5
D3
102
{ACAD_XDICTIONARY
360
39CF
102
}
102
{ACAD_REACTORS
330
1A
102
}
330
1A
100
AcDbPlotSettings
  1

  2
C:\Documents and Settings\basas\Application Data\Autodesk\AutoCAD 2005\R16.1\enu\plotters\Default Windows System Printer.pc3
  4

  6

 40
0.0
 41
0.0
 42
0.0
 43
0.0
 44
0.0
 45
0.0
 46
0.0
 47
0.0
 48
0.0
 49
0.0
140
0.0
141
0.0
142
1.0
143
1.0
 70
   688
 72
     0
 73
     0
 74
     5
  7

 75
    16
147
1.0
148
0.0
149
0.0
100
AcDbLayout
  1
Layout1
 70
     1
 71
     1
 10
0.0
 20
0.0
 11
12.0
 21
9.0
 12
0.0
 22
0.0
 32
0.0
 14
0.0
 24
0.0
 34
0.0
 15
0.0
 25
0.0
 35
0.0
146
0.0
 13
0.0
 23
0.0
 33
0.0
 16
1.0
 26
0.0
 36
0.0
 17
0.0
 27
1.0
 37
0.0
 76
     0
330
D2
  0
LAYOUT
  5
D7
102
{ACAD_XDICTIONARY
360
39D1
102
}
102
{ACAD_REACTORS
330
1A
102
}
330
1A
100
AcDbPlotSettings
  1

  2
C:\Documents and Settings\basas\Application Data\Autodesk\AutoCAD 2005\R16.1\enu\plotters\Default Windows System Printer.pc3
  4

  6

 40
0.0
 41
0.0
 42
0.0
 43
0.0
 44
0.0
 45
0.0
 46
0.0
 47
0.0
 48
0.0
 49
0.0
140
0.0
141
0.0
142
1.0
143
1.0
 70
   688
 72
     0
 73
     0
 74
     5
  7

 75
    16
147
1.0
148
0.0
149
0.0
100
AcDbLayout
  1
Layout2
 70
     1
 71
     2
 10
0.0
 20
0.0
 11
12.0
 21
9.0
 12
0.0
 22
0.0
 32
0.0
 14
0.0
 24
0.0
 34
0.0
 15
0.0
 25
0.0
 35
0.0
146
0.0
 13
0.0
 23
0.0
 33
0.0
 16
1.0
 26
0.0
 36
0.0
 17
0.0
 27
1.0
 37
0.0
 76
     0
330
D6
  0
LAYOUT
  5
22
102
{ACAD_XDICTIONARY
360
39CC
102
}
102
{ACAD_REACTORS
330
1A
102
}
330
1A
100
AcDbPlotSettings
  1

  2
none_device
  4
ISO_A4_(210.00_x_297.00_MM)
  6

 40
7.5
 41
20.0
 42
7.5
 43
20.0
 44
210.0
 45
297.0
 46
11.54999923706054
 47
-13.65000009536743
 48
0.0
 49
0.0
140
0.0
141
0.0
142
1.0
143
8.704084754739808
 70
 11952
 72
     1
 73
     0
 74
     0
  7

 75
     0
147
0.1148885871608098
148
0.0
149
0.0
100
AcDbLayout
  1
Model
 70
     1
 71
     0
 10
0.0
 20
0.0
 11
12.0
 21
9.0
 12
0.0
 22
0.0
 32
0.0
 14
0.0
 24
0.0
 34
0.0
 15
0.0
 25
0.0
 35
0.0
146
0.0
 13
0.0
 23
0.0
 33
0.0
 16
1.0
 26
0.0
 36
0.0
 17
0.0
 27
1.0
 37
0.0
 76
     0
330
1F
331
EA
1001
ACAD_PSEXT
1000
None
1000
None
1000
Not applicable
1000
The layout will not be plotted unless a new plotter configuration name is selected.
1070
     0
  0
MATERIAL
  5
ED
102
{ACAD_XDICTIONARY
360
1F9
102
}
102
{ACAD_REACTORS
330
6A
102
}
330
6A
100
AcDbMaterial
  1
ByBlock
  0
MATERIAL
  5
EC
102
{ACAD_XDICTIONARY
360
1F7
102
}
102
{ACAD_REACTORS
330
6A
102
}
330
6A
100
AcDbMaterial
  1
ByLayer
  0
MATERIAL
  5
EE
102
{ACAD_XDICTIONARY
360
173
102
}
102
{ACAD_REACTORS
330
6A
102
}
330
6A
100
AcDbMaterial
  1
Global
 43
0.0007999999797903
 43
0.0
 43
0.0
 43
0.0
 43
0.0
 43
0.0007999999797903
 43
0.0
 43
0.0
 43
0.0
 43
0.0
 43
1.0
 43
0.0
 43
0.0
 43
0.0
 43
0.0
 43
1.0
 49
0.0007999999797903
 49
0.0
 49
0.0
 49
0.0
 49
0.0
 49
0.0007999999797903
 49
0.0
 49
0.0
 49
0.0
 49
0.0
 49
1.0
 49
0.0
 49
0.0
 49
0.0
 49
0.0
 49
1.0
142
0.0007999999797903
142
0.0
142
0.0
142
0.0
142
0.0
142
0.0007999999797903
142
0.0
142
0.0
142
0.0
142
0.0
142
1.0
142
0.0
142
0.0
142
0.0
142
0.0
142
1.0
144
0.0007999999797903
144
0.0
144
0.0
144
0.0
144
0.0
144
0.0007999999797903
144
0.0
144
0.0
144
0.0
144
0.0
144
1.0
144
0.0
144
0.0
144
0.0
144
0.0
144
1.0
1001
ACAD
1070
    -1
1070
     3
1070
     0
1000

1071
        0
1070
     0
  0
MLEADERSTYLE
  5
12E
102
{ACAD_XDICTIONARY
360
39F6
102
}
102
{ACAD_REACTORS
330
12D
102
}
330
12D
100
AcDbMLeaderStyle
170
     2
171
     1
172
     0
 90
        2
 40
0.0
 41
0.0
173
     1
 91
-1056964608
340
14
 92
       -2
290
     1
 42
2.0
291
     1
 43
8.0
  3
Standard
 44
4.0
300

342
11
174
     1
178
     1
175
     1
176
     0
 93
-1056964608
 45
4.0
292
     0
297
     0
 46
4.0
 94
-1056964608
 47
1.0
 49
1.0
140
1.0
293
     1
141
0.0
294
     1
177
     0
142
1.0
295
     0
296
     0
143
3.75
1001
ACAD_MLEADERVER
1070
     2
  0
MLINESTYLE
  5
18
102
{ACAD_REACTORS
330
17
102
}
330
17
100
AcDbMlineStyle
  2
STANDARD
 70
     0
  3

 62
   256
 51
90.0
 52
90.0
 71
     2
 49
0.5
 62
   256
  6
BYLAYER
 49
-0.5
 62
   256
  6
BYLAYER
  0
ACDBPLACEHOLDER
  5
F
102
{ACAD_REACTORS
330
E
102
}
330
E
  0
SCALE
  5
10D
102
{ACAD_REACTORS
330
10C
102
}
330
10C
100
AcDbScale
 70
     0
300
1:1
140
1.0
141
1.0
290
     1
  0
SCALE
  5
1BE
102
{ACAD_REACTORS
330
10C
102
}
330
10C
100
AcDbScale
 70
     0
300
1:2
140
1.0
141
2.0
290
     0
  0
SCALE
  5
1BF
102
{ACAD_REACTORS
330
10C
102
}
330
10C
100
AcDbScale
 70
     0
300
1:4
140
1.0
141
4.0
290
     0
  0
SCALE
  5
1C0
102
{ACAD_REACTORS
330
10C
102
}
330
10C
100
AcDbScale
 70
     0
300
1:5
140
1.0
141
5.0
290
     0
  0
SCALE
  5
1C1
102
{ACAD_REACTORS
330
10C
102
}
330
10C
100
AcDbScale
 70
     0
300
1:8
140
1.0
141
8.0
290
     0
  0
SCALE
  5
1C2
102
{ACAD_REACTORS
330
10C
102
}
330
10C
100
AcDbScale
 70
     0
300
1:10
140
1.0
141
10.0
290
     0
  0
SCALE
  5
1C3
102
{ACAD_REACTORS
330
10C
102
}
330
10C
100
AcDbScale
 70
     0
300
1:16
140
1.0
141
16.0
290
     0
  0
SCALE
  5
1C4
102
{ACAD_REACTORS
330
10C
102
}
330
10C
100
AcDbScale
 70
     0
300
1:20
140
1.0
141
20.0
290
     0
  0
SCALE
  5
1C5
102
{ACAD_REACTORS
330
10C
102
}
330
10C
100
AcDbScale
 70
     0
300
1:30
140
1.0
141
30.0
290
     0
  0
SCALE
  5
1C6
102
{ACAD_REACTORS
330
10C
102
}
330
10C
100
AcDbScale
 70
     0
300
1:40
140
1.0
141
40.0
290
     0
  0
SCALE
  5
1C7
102
{ACAD_REACTORS
330
10C
102
}
330
10C
100
AcDbScale
 70
     0
300
1:50
140
1.0
141
50.0
290
     0
  0
SCALE
  5
1C8
102
{ACAD_REACTORS
330
10C
102
}
330
10C
100
AcDbScale
 70
     0
300
1:100
140
1.0
141
100.0
290
     0
  0
SCALE
  5
1C9
102
{ACAD_REACTORS
330
10C
102
}
330
10C
100
AcDbScale
 70
     0
300
2:1
140
2.0
141
1.0
290
     0
  0
SCALE
  5
1CA
102
{ACAD_REACTORS
330
10C
102
}
330
10C
100
AcDbScale
 70
     0
300
4:1
140
4.0
141
1.0
290
     0
  0
SCALE
  5
1CB
102
{ACAD_REACTORS
330
10C
102
}
330
10C
100
AcDbScale
 70
     0
300
8:1
140
8.0
141
1.0
290
     0
  0
SCALE
  5
1CC
102
{ACAD_REACTORS
330
10C
102
}
330
10C
100
AcDbScale
 70
     0
300
10:1
140
10.0
141
1.0
290
     0
  0
SCALE
  5
1CD
102
{ACAD_REACTORS
330
10C
102
}
330
10C
100
AcDbScale
 70
     0
300
100:1
140
100.0
141
1.0
290
     0
  0
ACDBSECTIONVIEWSTYLE
  5
21A
102
{ACAD_XDICTIONARY
360
3A08
102
}
102
{ACAD_REACTORS
330
219
102
}
330
219
100
AcDbModelDocViewStyle
 70
     0
  3
Metric50
290
     0
100
AcDbSectionViewStyle
 70
     0
 71
     0
 90
      102
 71
     1
340
11
 40
5.0
340
0
340
0
 40
5.0
300
I, O, Q, S, X, Z
 40
10.0
 90
        0
 40
2.5
 90
        0
 71
     2
340
16
 90
       25
340
16
 90
       50
 40
5.0
 40
2.5
 40
5.0
 71
     3
340
11
 40
5.0
 90
        0
 40
15.0
 90
        1
300
%<\AcVar ViewSectionStartId>%-%<\AcVar ViewSectionEndId>% (%<\AcVar ViewScale \f "%sn">%)
 71
     4
300
ANSI31
 40
1.0
 90
        0
290
     0
290
     0
 90
        6
 40
0.0
 40
1.570796326794896
 40
0.2617993877991494
 40
1.308996938995747
 40
-0.2617993877991494
 40
1.832595714594046
  0
TABLESTYLE
  5
7F
102
{ACAD_XDICTIONARY
360
162
102
}
102
{ACAD_REACTORS
330
7E
102
}
330
7E
100
AcDbTableStyle
  3
Standard
 70
     0
 71
     0
 40
1.5
 41
1.5
280
     0
281
     0
  7
Standard
140
4.5
170
     2
 62
     0
 63
     7
283
     0
274
    -2
284
     1
 64
     0
275
    -2
285
     1
 65
     0
276
    -2
286
     1
 66
     0
277
    -2
287
     1
 67
     0
278
    -2
288
     1
 68
     0
279
    -2
289
     1
 69
     0
  7
Standard
140
6.0
170
     5
 62
     0
 63
     7
283
     0
274
    -2
284
     1
 64
     0
275
    -2
285
     1
 65
     0
276
    -2
286
     1
 66
     0
277
    -2
287
     1
 67
     0
278
    -2
288
     1
 68
     0
279
    -2
289
     1
 69
     0
  7
Standard
140
4.5
170
     5
 62
     0
 63
     7
283
     0
274
    -2
284
     1
 64
     0
275
    -2
285
     1
 65
     0
276
    -2
286
     1
 66
     0
277
    -2
287
     1
 67
     0
278
    -2
288
     1
 68
     0
279
    -2
289
     1
 69
     0
  0
VISUALSTYLE
  5
F5
102
{ACAD_XDICTIONARY
360
39E0
102
}
102
{ACAD_REACTORS
330
EF
102
}
330
EF
100
AcDbVisualStyle
  2
2dWireframe
 70
     4
 71
     0
 72
     2
 73
     1
 90
        0
 40
-0.6
 41
-30.0
 62
     5
 63
     7
 74
     1
 91
        4
 64
     7
 65
   257
 75
     1
175
     1
 42
1.0
 92
        0
 66
   257
 43
1.0
 76
     1
 77
     6
 78
     2
 67
     7
 79
     5
170
     0
171
     0
290
     0
174
     0
 93
        1
 44
0.0
173
     0
291
     0
 45
0.0
1001
ACAD
1000
AcDbSavedByObjectVersion
1070
     0
  0
VISUALSTYLE
  5
F4
102
{ACAD_XDICTIONARY
360
39DE
102
}
102
{ACAD_REACTORS
330
EF
102
}
330
EF
100
AcDbVisualStyle
  2
Basic
 70
     7
 71
     1
 72
     0
 73
     1
 90
        0
 40
-0.6
 41
-30.0
 62
     5
 63
     7
 74
     0
 91
        4
 64
     7
 65
   257
 75
     1
175
     1
 42
1.0
 92
        8
 66
     7
 43
1.0
 76
     1
 77
     6
 78
     2
 67
     7
 79
     5
170
     0
171
     0
290
     0
174
     0
 93
        1
 44
0.0
173
     0
291
     1
 45
0.0
1001
ACAD
1000
AcDbSavedByObjectVersion
1070
     0
  0
VISUALSTYLE
  5
FB
102
{ACAD_XDICTIONARY
360
39EC
102
}
102
{ACAD_REACTORS
330
EF
102
}
330
EF
100
AcDbVisualStyle
  2
Brighten
 70
    12
 71
     2
 72
     2
 73
     1
 90
        0
 40
-0.6
 41
-30.0
 62
     5
 63
     7
 74
     1
 91
        4
 64
     7
 65
   257
 75
     1
175
     1
 42
1.0
 92
        8
 66
     7
 43
1.0
 76
     1
 77
     6
 78
     2
 67
     7
 79
     5
170
     0
171
     0
290
     0
174
     0
 93
        1
 44
50.0
173
     0
291
     1
 45
0.0
1001
ACAD
1000
AcDbSavedByObjectVersion
1070
     0
  0
VISUALSTYLE
  5
FF
102
{ACAD_XDICTIONARY
360
39F4
102
}
102
{ACAD_REACTORS
330
EF
102
}
330
EF
100
AcDbVisualStyle
  2
ColorChange
 70
    16
 71
     2
 72
     2
 73
     3
 90
        0
 40
-0.6
 41
-30.0
 62
     5
 63
     8
 74
     1
 91
        4
 64
     7
 65
   257
 75
     1
175
     1
 42
1.0
 92
        8
 66
     8
 43
1.0
 76
     1
 77
     6
 78
     2
 67
     7
 79
     5
170
     0
171
     0
290
     0
174
     0
 93
        1
 44
0.0
173
     0
291
     1
 45
0.0
1001
ACAD
1000
AcDbSavedByObjectVersion
1070
     0
  0
VISUALSTYLE
  5
F8
102
{ACAD_XDICTIONARY
360
39E6
102
}
102
{ACAD_REACTORS
330
EF
102
}
330
EF
100
AcDbVisualStyle
  2
Conceptual
 70
     9
 71
     3
 72
     2
 73
     1
 90
        0
 40
-0.6
 41
-30.0
 62
     5
 63
     7
 74
     2
 91
        2
 64
     7
 65
   257
 75
     1
175
     1
 42
40.0
 92
        8
 66
     7
 43
1.0
 76
     1
 77
     6
 78
     2
 67
     7
 79
     3
170
     0
171
     0
290
     0
174
     0
 93
        1
 44
0.0
173
     0
291
     0
 45
0.0
1001
ACAD
1000
AcDbSavedByObjectVersion
1070
     0
  0
VISUALSTYLE
  5
FA
102
{ACAD_XDICTIONARY
360
39EA
102
}
102
{ACAD_REACTORS
330
EF
102
}
330
EF
100
AcDbVisualStyle
  2
Dim
 70
    11
 71
     2
 72
     2
 73
     1
 90
        0
 40
-0.6
 41
-30.0
 62
     5
 63
     7
 74
     1
 91
        4
 64
     7
 65
   257
 75
     1
175
     1
 42
1.0
 92
        8
 66
     7
 43
1.0
 76
     1
 77
     6
 78
     2
 67
     7
 79
     5
170
     0
171
     0
290
     0
174
     0
 93
        1
 44
-50.0
173
     0
291
     1
 45
0.0
1001
ACAD
1000
AcDbSavedByObjectVersion
1070
     0
  0
VISUALSTYLE
  5
1E6
102
{ACAD_XDICTIONARY
360
39FC
102
}
102
{ACAD_REACTORS
330
EF
102
}
330
EF
100
AcDbVisualStyle
  2
EdgeColorOff
 70
    22
 71
     2
 72
     2
 73
     0
 90
        0
 40
-0.6
 41
-30.0
 62
     5
 63
     7
 74
     1
 91
        4
 64
     7
 65
   257
 75
     1
175
     1
 42
1.0
 92
        8
 66
     7
 43
1.0
 76
     1
 77
     6
 78
     2
 67
     7
 79
     5
170
     0
171
     0
290
     0
174
     0
 93
        1
 44
0.0
173
     0
291
     1
 45
0.0
1001
ACAD
1000
AcDbSavedByObjectVersion
1070
     0
  0
VISUALSTYLE
  5
FE
102
{ACAD_XDICTIONARY
360
39F2
102
}
102
{ACAD_REACTORS
330
EF
102
}
330
EF
100
AcDbVisualStyle
  2
Facepattern
 70
    15
 71
     2
 72
     2
 73
     1
 90
        0
 40
-0.6
 41
-30.0
 62
     5
 63
     7
 74
     1
 91
        4
 64
     7
 65
   257
 75
     1
175
     1
 42
1.0
 92
        8
 66
     7
 43
1.0
 76
     1
 77
     6
 78
     2
 67
     7
 79
     5
170
     0
171
     0
290
     0
174
     0
 93
        1
 44
0.0
173
     0
291
     1
 45
0.0
1001
ACAD
1000
AcDbSavedByObjectVersion
1070
     0
  0
VISUALSTYLE
  5
F0
102
{ACAD_XDICTIONARY
360
39D6
102
}
102
{ACAD_REACTORS
330
EF
102
}
330
EF
100
AcDbVisualStyle
  2
Flat
 70
     0
 71
     2
 72
     1
 73
     1
 90
        2
 40
-0.6
 41
30.0
 62
     5
 63
     7
 74
     0
 91
        0
 64
     7
 65
   257
 75
     1
175
     1
 42
1.0
 92
        8
 66
     7
 43
1.0
 76
     1
 77
     6
 78
     2
 67
     7
 79
     5
170
     0
171
     0
290
     0
174
     0
 93
       13
 44
0.0
173
     0
291
     1
 45
0.0
1001
ACAD
1000
AcDbSavedByObjectVersion
1070
     0
  0
VISUALSTYLE
  5
F1
102
{ACAD_XDICTIONARY
360
39D8
102
}
102
{ACAD_REACTORS
330
EF
102
}
330
EF
100
AcDbVisualStyle
  2
FlatWithEdges
 70
     1
 71
     2
 72
     1
 73
     1
 90
        2
 40
-0.6
 41
30.0
 62
     5
 63
     7
 74
     1
 91
        0
 64
     7
 65
   257
 75
     1
175
     1
 42
1.0
 92
        0
 66
   257
 43
1.0
 76
     1
 77
     6
 78
     2
 67
     7
 79
     5
170
     0
171
     0
290
     0
174
     0
 93
       13
 44
0.0
173
     0
291
     1
 45
0.0
1001
ACAD
1000
AcDbSavedByObjectVersion
1070
     0
  0
VISUALSTYLE
  5
F2
102
{ACAD_XDICTIONARY
360
39DA
102
}
102
{ACAD_REACTORS
330
EF
102
}
330
EF
100
AcDbVisualStyle
  2
Gouraud
 70
     2
 71
     2
 72
     2
 73
     1
 90
        2
 40
-0.6
 41
30.0
 62
     5
 63
     7
 74
     0
 91
        0
 64
     7
 65
   257
 75
     1
175
     1
 42
1.0
 92
        0
 66
     7
 43
1.0
 76
     1
 77
     6
 78
     2
 67
     7
 79
     5
170
     0
171
     0
290
     0
174
     0
 93
       13
 44
0.0
173
     0
291
     1
 45
0.0
1001
ACAD
1000
AcDbSavedByObjectVersion
1070
     0
  0
VISUALSTYLE
  5
F3
102
{ACAD_XDICTIONARY
360
39DC
102
}
102
{ACAD_REACTORS
330
EF
102
}
330
EF
100
AcDbVisualStyle
  2
GouraudWithEdges
 70
     3
 71
     2
 72
     2
 73
     1
 90
        2
 40
-0.6
 41
30.0
 62
     5
 63
     7
 74
     1
 91
        0
 64
     7
 65
   257
 75
     1
175
     1
 42
1.0
 92
        0
 66
   257
 43
1.0
 76
     1
 77
     6
 78
     2
 67
     7
 79
     5
170
     0
171
     0
290
     0
174
     0
 93
       13
 44
0.0
173
     0
291
     1
 45
0.0
1001
ACAD
1000
AcDbSavedByObjectVersion
1070
     0
  0
VISUALSTYLE
  5
F7
102
{ACAD_XDICTIONARY
360
39E4
102
}
102
{ACAD_REACTORS
330
EF
102
}
330
EF
100
AcDbVisualStyle
  2
Hidden
 70
     6
 71
     1
 72
     2
 73
     2
 90
        0
 40
-0.6
 41
-30.0
 62
     5
 63
     7
 74
     2
 91
        2
 64
     7
 65
   257
 75
     2
175
     1
 42
40.0
 92
        0
 66
   257
 43
1.0
 76
     1
 77
     6
 78
     2
 67
     7
 79
     3
170
     0
171
     0
290
     0
174
     0
 93
        1
 44
0.0
173
     0
291
     0
 45
0.0
1001
ACAD
1000
AcDbSavedByObjectVersion
1070
     0
  0
VISUALSTYLE
  5
1E4
102
{ACAD_XDICTIONARY
360
39F8
102
}
102
{ACAD_REACTORS
330
EF
102
}
330
EF
100
AcDbVisualStyle
  2
JitterOff
 70
    20
 71
     2
 72
     2
 73
     0
 90
        0
 40
-0.6
 41
-30.0
 62
     5
 63
     7
 74
     1
 91
        4
 64
     7
 65
   257
 75
     1
175
     1
 42
1.0
 92
       10
 66
     7
 43
1.0
 76
     1
 77
     6
 78
     2
 67
     7
 79
     5
170
     0
171
     0
290
     0
174
     0
 93
        1
 44
0.0
173
     0
291
     1
 45
0.0
1001
ACAD
1000
AcDbSavedByObjectVersion
1070
     0
  0
VISUALSTYLE
  5
FD
102
{ACAD_XDICTIONARY
360
39F0
102
}
102
{ACAD_REACTORS
330
EF
102
}
330
EF
100
AcDbVisualStyle
  2
Linepattern
 70
    14
 71
     2
 72
     2
 73
     1
 90
        0
 40
-0.6
 41
-30.0
 62
     5
 63
     7
 74
     1
 91
        4
 64
     7
 65
   257
 75
     7
175
     7
 42
1.0
 92
        8
 66
     7
 43
1.0
 76
     1
 77
     6
 78
     2
 67
     7
 79
     5
170
     0
171
     0
290
     0
174
     0
 93
        1
 44
0.0
173
     0
291
     1
 45
0.0
1001
ACAD
1000
AcDbSavedByObjectVersion
1070
     0
  0
VISUALSTYLE
  5
1E5
102
{ACAD_XDICTIONARY
360
39FA
102
}
102
{ACAD_REACTORS
330
EF
102
}
330
EF
100
AcDbVisualStyle
  2
OverhangOff
 70
    21
 71
     2
 72
     2
 73
     0
 90
        0
 40
-0.6
 41
-30.0
 62
     5
 63
     7
 74
     1
 91
        4
 64
     7
 65
   257
 75
     1
175
     1
 42
1.0
 92
        9
 66
     7
 43
1.0
 76
     1
 77
     6
 78
     2
 67
     7
 79
     5
170
     0
171
     0
290
     0
174
     0
 93
        1
 44
0.0
173
     0
291
     1
 45
0.0
1001
ACAD
1000
AcDbSavedByObjectVersion
1070
     0
  0
VISUALSTYLE
  5
F9
102
{ACAD_XDICTIONARY
360
39E8
102
}
102
{ACAD_REACTORS
330
EF
102
}
330
EF
100
AcDbVisualStyle
  2
Realistic
 70
     8
 71
     2
 72
     2
 73
     0
 90
        2
 40
-0.6
 41
30.0
 62
     5
 63
     7
 74
     0
 91
        0
 64
     7
 65
   257
 75
     1
175
     1
 42
1.0
 92
        8
 66
   257
 43
1.0
 76
     1
 77
     6
 78
     2
 67
     7
 79
     3
170
     0
171
     0
290
     0
174
     0
 93
       13
 44
0.0
173
     0
291
     0
 45
0.0
1001
ACAD
1000
AcDbSavedByObjectVersion
1070
     0
  0
VISUALSTYLE
  5
1F3
102
{ACAD_XDICTIONARY
360
3A06
102
}
102
{ACAD_REACTORS
330
EF
102
}
330
EF
100
AcDbVisualStyle
  2
Shaded
 70
    27
 71
     2
 72
     2
 73
     1
 90
        2
 40
-0.6
 41
30.0
 62
     5
 63
     7
 74
     0
 91
        4
 64
     7
 65
   257
 75
     1
175
     1
 42
1.0
 92
        8
 66
   257
 43
1.0
 76
     1
 77
     6
 78
     2
 67
     8
 79
     3
170
     0
171
     0
290
     0
174
     0
 93
        5
 44
0.0
173
     0
291
     0
 45
0.0
1001
ACAD
1000
AcDbSavedByObjectVersion
1070
     0
  0
VISUALSTYLE
  5
1F2
102
{ACAD_XDICTIONARY
360
3A04
102
}
102
{ACAD_REACTORS
330
EF
102
}
330
EF
100
AcDbVisualStyle
  2
Shaded with edges
 70
    26
 71
     2
 72
     2
 73
     1
 90
        2
 40
-0.6
 41
30.0
 62
     5
 63
     7
 74
     1
 91
        2
 64
     7
 65
   257
 75
     2
175
     1
 42
1.0
 92
        8
 66
   257
 43
1.0
 76
     1
 77
     6
 78
     2
 67
     7
 79
     3
170
     0
171
     0
290
     0
174
     0
 93
        5
 44
0.0
173
     0
291
     0
 45
0.0
1001
ACAD
1000
AcDbSavedByObjectVersion
1070
     0
  0
VISUALSTYLE
  5
1EF
102
{ACAD_XDICTIONARY
360
39FE
102
}
102
{ACAD_REACTORS
330
EF
102
}
330
EF
100
AcDbVisualStyle
  2
Shades of Gray
 70
    23
 71
     2
 72
     2
 73
     3
 90
        0
 40
-0.6
 41
-30.0
 62
     5
 63
     7
 74
     2
 91
        2
 64
     7
 65
     7
 75
     1
175
     1
 42
40.0
 92
        8
 66
     7
 43
1.0
 76
     1
 77
     6
 78
     2
 67
     7
 79
     3
170
     0
171
     0
290
     0
174
     0
 93
        1
 44
0.0
173
     0
291
     0
 45
0.0
1001
ACAD
1000
AcDbSavedByObjectVersion
1070
     0
  0
VISUALSTYLE
  5
1F0
102
{ACAD_XDICTIONARY
360
3A00
102
}
102
{ACAD_REACTORS
330
EF
102
}
330
EF
100
AcDbVisualStyle
  2
Sketchy
 70
    24
 71
     1
 72
     2
 73
     2
 90
        0
 40
-0.6
 41
-30.0
 62
     5
 63
     7
 74
     2
 91
        2
 64
     7
 65
     7
 75
     1
175
     1
 42
40.0
 92
       11
 66
     7
 43
1.0
 76
     1
 77
     6
 78
     2
 67
     7
 79
     6
170
     0
171
     0
290
     0
174
     0
 93
        1
 44
0.0
173
     0
291
     0
 45
0.0
1001
ACAD
1000
AcDbSavedByObjectVersion
1070
     0
  0
VISUALSTYLE
  5
FC
102
{ACAD_XDICTIONARY
360
39EE
102
}
102
{ACAD_REACTORS
330
EF
102
}
330
EF
100
AcDbVisualStyle
  2
Thicken
 70
    13
 71
     2
 72
     2
 73
     1
 90
        0
 40
-0.6
 41
-30.0
 62
     5
 63
     7
 74
     1
 91
        4
 64
     7
 65
   257
 75
     1
175
     1
 42
1.0
 92
       12
 66
     7
 43
1.0
 76
     1
 77
     6
 78
     2
 67
     7
 79
     5
170
     0
171
     0
290
     0
174
     0
 93
        1
 44
0.0
173
     0
291
     1
 45
0.0
1001
ACAD
1000
AcDbSavedByObjectVersion
1070
     0
  0
VISUALSTYLE
  5
F6
102
{ACAD_XDICTIONARY
360
39E2
102
}
102
{ACAD_REACTORS
330
EF
102
}
330
EF
100
AcDbVisualStyle
  2
Wireframe
 70
     5
 71
     0
 72
     2
 73
     0
 90
        0
 40
-0.6
 41
-30.0
 62
     5
 63
     7
 74
     1
 91
        4
 64
     7
 65
   257
 75
     1
175
     1
 42
1.0
 92
        0
 66
   257
 43
1.0
 76
     1
 77
     6
 78
     2
 67
     7
 79
     3
170
     0
171
     0
290
     0
174
     0
 93
        1
 44
0.0
173
     0
291
     0
 45
0.0
1001
ACAD
1000
AcDbSavedByObjectVersion
1070
     0
  0
VISUALSTYLE
  5
1F1
102
{ACAD_XDICTIONARY
360
3A02
102
}
102
{ACAD_REACTORS
330
EF
102
}
330
EF
100
AcDbVisualStyle
  2
X-Ray
 70
    25
 71
     2
 72
     2
 73
     1
 90
        1
 40
0.5
 41
-30.0
 62
     5
 63
     7
 74
     1
 91
        0
 64
     7
 65
   257
 75
     1
175
     1
 42
1.0
 92
        8
 66
     7
 43
1.0
 76
     1
 77
     6
 78
     2
 67
     7
 79
     3
170
     0
171
     0
290
     0
174
     0
 93
       13
 44
0.0
173
     0
291
     0
 45
0.0
1001
ACAD
1000
AcDbSavedByObjectVersion
1070
     0
  0
DICTIONARYVAR
  5
146
102
{ACAD_REACTORS
330
5E
102
}
330
5E
100
DictionaryVariables
280
     0
  1
1:1
  0
DICTIONARYVAR
  5
259
102
{ACAD_REACTORS
330
5E
102
}
330
5E
100
DictionaryVariables
280
     0
  1
3.500000
  0
DICTIONARYVAR
  5
25A
102
{ACAD_REACTORS
330
5E
102
}
330
5E
100
DictionaryVariables
280
     0
  1
acadiso.lin
  0
DICTIONARYVAR
  5
145
102
{ACAD_REACTORS
330
5E
102
}
330
5E
100
DictionaryVariables
280
     0
  1
STANDARD
  0
DICTIONARYVAR
  5
84
102
{ACAD_REACTORS
330
5E
102
}
330
5E
100
DictionaryVariables
280
     0
  1
STANDARD
  0
DICTIONARYVAR
  5
227
102
{ACAD_REACTORS
330
5E
102
}
330
5E
100
DictionaryVariables
280
     0
  1
Metric50
  0
DICTIONARYVAR
  5
228
102
{ACAD_REACTORS
330
5E
102
}
330
5E
100
DictionaryVariables
280
     0
  1
Metric50
  0
DICTIONARYVAR
  5
5F
102
{ACAD_REACTORS
330
5E
102
}
330
5E
100
DictionaryVariables
280
     0
  1
2
  0
DICTIONARYVAR
  5
63
102
{ACAD_REACTORS
330
5E
102
}
330
5E
100
DictionaryVariables
280
     0
  1
1
  0
DICTIONARYVAR
  5
3977
102
{ACAD_REACTORS
330
5E
102
}
330
5E
100
DictionaryVariables
280
     0
  1
0
  0
DICTIONARYVAR
  5
1AE
102
{ACAD_REACTORS
330
5E
102
}
330
5E
100
DictionaryVariables
280
     0
  1
0
  0
DICTIONARYVAR
  5
1AF
102
{ACAD_REACTORS
330
5E
102
}
330
5E
100
DictionaryVariables
280
     0
  1
0
  0
DICTIONARYVAR
  5
3975
102
{ACAD_REACTORS
330
5E
102
}
330
5E
100
DictionaryVariables
280
     0
  1
2
  0
DICTIONARYVAR
  5
3974
102
{ACAD_REACTORS
330
5E
102
}
330
5E
100
DictionaryVariables
280
     0
  1
1
  0
DICTIONARYVAR
  5
39C7
102
{ACAD_REACTORS
330
5E
102
}
330
5E
100
DictionaryVariables
280
     0
  1
80.000000
  0
DICTIONARYVAR
  5
39C6
102
{ACAD_REACTORS
330
5E
102
}
330
5E
100
DictionaryVariables
280
     0
  1
5.000000
  0
DICTIONARYVAR
  5
3976
102
{ACAD_REACTORS
330
5E
102
}
330
5E
100
DictionaryVariables
280
     0
  1
127
  0
DICTIONARYVAR
  5
39C8
102
{ACAD_REACTORS
330
5E
102
}
330
5E
100
DictionaryVariables
280
     0
  1
2
  0
DICTIONARY
  5
3A0A
330
21C
100
AcDbDictionary
280
     1
281
     1
  3
ACAD_XREC_ROUNDTRIP
360
3A0B
  0
DICTIONARY
  5
39CF
330
D3
100
AcDbDictionary
280
     1
281
     1
  3
ACAD_XREC_ROUNDTRIP
360
39D0
  0
DICTIONARY
  5
39D1
330
D7
100
AcDbDictionary
280
     1
281
     1
  3
ACAD_XREC_ROUNDTRIP
360
39D2
  0
DICTIONARY
  5
39CC
330
22
100
AcDbDictionary
280
     1
281
     1
  3
ACAD_XREC_ROUNDTRIP
360
39CD
  0
DICTIONARY
  5
1F9
330
ED
100
AcDbDictionary
280
     1
281
     1
  3
ACAD_XREC_ROUNDTRIP
360
39D4
  3
FBXASSET
360
1FA
  0
DICTIONARY
  5
1F7
330
EC
100
AcDbDictionary
280
     1
281
     1
  3
ACAD_XREC_ROUNDTRIP
360
39D3
  3
FBXASSET
360
1F8
  0
DICTIONARY
  5
173
330
EE
100
AcDbDictionary
280
     1
281
     1
  3
ACAD_XREC_ROUNDTRIP
360
39D5
  3
BUMPTILE
360
175
  3
DIFFUSETILE
360
174
  3
FBXASSET
360
1FB
  3
OPACITYTILE
360
176
  3
REFLECTIONTILE
360
177
  0
DICTIONARY
  5
39F6
330
12E
100
AcDbDictionary
280
     1
281
     1
  3
ACAD_XREC_ROUNDTRIP
360
39F7
  0
DICTIONARY
  5
3A08
330
21A
100
AcDbDictionary
280
     1
281
     1
  3
ACAD_XREC_ROUNDTRIP
360
3A09
  0
DICTIONARY
  5
162
330
7F
100
AcDbDictionary
280
     1
281
     1
  3
ACAD_ROUNDTRIP_2008_TABLESTYLE_CELLSTYLEMAP
360
39C9
  3
ACAD_XREC_ROUNDTRIP
360
39CE
  0
DICTIONARY
  5
39E0
330
F5
100
AcDbDictionary
280
     1
281
     1
  3
ACAD_XREC_ROUNDTRIP
360
39E1
  0
DICTIONARY
  5
39DE
330
F4
100
AcDbDictionary
280
     1
281
     1
  3
ACAD_XREC_ROUNDTRIP
360
39DF
  0
DICTIONARY
  5
39EC
330
FB
100
AcDbDictionary
280
     1
281
     1
  3
ACAD_XREC_ROUNDTRIP
360
39ED
  0
DICTIONARY
  5
39F4
330
FF
100
AcDbDictionary
280
     1
281
     1
  3
ACAD_XREC_ROUNDTRIP
360
39F5
  0
DICTIONARY
  5
39E6
330
F8
100
AcDbDictionary
280
     1
281
     1
  3
ACAD_XREC_ROUNDTRIP
360
39E7
  0
DICTIONARY
  5
39EA
330
FA
100
AcDbDictionary
280
     1
281
     1
  3
ACAD_XREC_ROUNDTRIP
360
39EB
  0
DICTIONARY
  5
39FC
330
1E6
100
AcDbDictionary
280
     1
281
     1
  3
ACAD_XREC_ROUNDTRIP
360
39FD
  0
DICTIONARY
  5
39F2
330
FE
100
AcDbDictionary
280
     1
281
     1
  3
ACAD_XREC_ROUNDTRIP
360
39F3
  0
DICTIONARY
  5
39D6
330
F0
100
AcDbDictionary
280
     1
281
     1
  3
ACAD_XREC_ROUNDTRIP
360
39D7
  0
DICTIONARY
  5
39D8
330
F1
100
AcDbDictionary
280
     1
281
     1
  3
ACAD_XREC_ROUNDTRIP
360
39D9
  0
DICTIONARY
  5
39DA
330
F2
100
AcDbDictionary
280
     1
281
     1
  3
ACAD_XREC_ROUNDTRIP
360
39DB
  0
DICTIONARY
  5
39DC
330
F3
100
AcDbDictionary
280
     1
281
     1
  3
ACAD_XREC_ROUNDTRIP
360
39DD
  0
DICTIONARY
  5
39E4
330
F7
100
AcDbDictionary
280
     1
281
     1
  3
ACAD_XREC_ROUNDTRIP
360
39E5
  0
DICTIONARY
  5
39F8
330
1E4
100
AcDbDictionary
280
     1
281
     1
  3
ACAD_XREC_ROUNDTRIP
360
39F9
  0
DICTIONARY
  5
39F0
330
FD
100
AcDbDictionary
280
     1
281
     1
  3
ACAD_XREC_ROUNDTRIP
360
39F1
  0
DICTIONARY
  5
39FA
330
1E5
100
AcDbDictionary
280
     1
281
     1
  3
ACAD_XREC_ROUNDTRIP
360
39FB
  0
DICTIONARY
  5
39E8
330
F9
100
AcDbDictionary
280
     1
281
     1
  3
ACAD_XREC_ROUNDTRIP
360
39E9
  0
DICTIONARY
  5
3A06
330
1F3
100
AcDbDictionary
280
     1
281
     1
  3
ACAD_XREC_ROUNDTRIP
360
3A07
  0
DICTIONARY
  5
3A04
330
1F2
100
AcDbDictionary
280
     1
281
     1
  3
ACAD_XREC_ROUNDTRIP
360
3A05
  0
DICTIONARY
  5
39FE
330
1EF
100
AcDbDictionary
280
     1
281
     1
  3
ACAD_XREC_ROUNDTRIP
360
39FF
  0
DICTIONARY
  5
3A00
330
1F0
100
AcDbDictionary
280
     1
281
     1
  3
ACAD_XREC_ROUNDTRIP
360
3A01
  0
DICTIONARY
  5
39EE
330
FC
100
AcDbDictionary
280
     1
281
     1
  3
ACAD_XREC_ROUNDTRIP
360
39EF
  0
DICTIONARY
  5
39E2
330
F6
100
AcDbDictionary
280
     1
281
     1
  3
ACAD_XREC_ROUNDTRIP
360
39E3
  0
DICTIONARY
  5
3A02
330
1F1
100
AcDbDictionary
280
     1
281
     1
  3
ACAD_XREC_ROUNDTRIP
360
3A03
  0
XRECORD
  5
3A0B
102
{ACAD_REACTORS
330
3A0A
102
}
330
3A0A
100
AcDbXrecord
280
     1
102
DISPLAYNAME
  1
Metric50
102
FLAGS
 90
        0
  0
XRECORD
  5
39D0
102
{ACAD_REACTORS
330
39CF
102
}
330
39CF
100
AcDbXrecord
280
     1
102
SHADEPLOT
 70
     0
102
SHADEPLOTRESLEVEL
 70
     2
102
SHADEPLOTCUSTOMDPI
 70
   300
  0
XRECORD
  5
39D2
102
{ACAD_REACTORS
330
39D1
102
}
330
39D1
100
AcDbXrecord
280
     1
102
SHADEPLOT
 70
     0
102
SHADEPLOTRESLEVEL
 70
     2
102
SHADEPLOTCUSTOMDPI
 70
   300
  0
XRECORD
  5
39CD
102
{ACAD_REACTORS
330
39CC
102
}
330
39CC
100
AcDbXrecord
280
     1
102
SHADEPLOT
 70
     0
102
SHADEPLOTRESLEVEL
 70
     2
102
SHADEPLOTCUSTOMDPI
 70
   300
  0
XRECORD
  5
39D4
102
{ACAD_REACTORS
330
1F9
102
}
330
1F9
100
AcDbXrecord
280
     1
102
MATERIAL
148
0.0
149
0.0
149
0.0
 93
        0
 94
       63
282
     0
 72
     1
 77
     1
171
     1
175
     1
179
     1
273
     0
  0
XRECORD
  5
1FA
102
{ACAD_REACTORS
330
1F9
102
}
330
1F9
100
AcDbXrecord
280
     1
 70
     1
 90
429727718
  1
D62C5603-E3A1-4AEA-B7FB-FE5D8D0755AF
310
504B03040A0000080000CC70623B3DEE336E79000000790000001B0000006175746F6465736B2D64657369676E2D7061636B6167652E786D6C3C3F786D6C2076657273696F6E3D22312E302220656E636F64696E673D227574662D3822203F3E3C666F726D6174733E3C666F726D61743E687474703A2F2F736368656D612E
310
6175746F6465736B2E636F6D2F64657369676E2D7061636B6167652F323030393C2F666F726D61743E3C2F666F726D6174733E504B0304140006080800CC70623BD486FD9CA0000000F4000000130000005B436F6E74656E745F54797065735D2E786D6C7D8EC10E82300C865F65E91D8A1E8C310C0EEA1BF002731658846E
310
D98AC1B77784ABF1D8FE5FBFBF75BBCE937A534CCEB38643598122B6FEE978D0B0485F9C41B54DDD7D022595594E1A469170414C76A4D9A4D207E29CF43ECE46F218070CC6BECC4078ACAA135ACF422C856C0E68EA1BF5669944DDD7BCDE7B1F8E415D77AECB980613C2E4AC91FC167A2B244592486606FC29C8FD7F045B9A
310
EF7053A7E60B504B0304140006080800CC70623B853B8169EB0000007C01000008000000636F72652E786D6C8D90416EC3201045AF62CDB6C206821CC7C244919D9CA01740401C94182C03558F5F9C3852BBEB6A467FFE9B197D7EFC9E1EC5975982F5AE035262288C535E5B377690E21535501C055FBC8FBF6C503839990E
310
5619041F179FE64D52DE45E362569DD7661365082642A11EB9E920A89B99642953CC8E702F67A9EE7234257977194EC9EAE275C4EABCCF5EAD5940D4AC6F0E35A568B8F43562CD7046CD199FD07E60174276A7BE677B5EADB0E0D14EEFFB6A31321A0D82627C4084204C3F096B71DD52F6819B16635EADF63F509AF53FA164
310
5DDCD1EDDD17164090FCC8732078B56691CB33A85CD7DCC40F504B0304140006080800CC70623B55019EA25F0000007C00000007000000636E782E786D6C4DCB3B0E80201045D1AD90E915ED2CF8AC45050C11660C8261F98AB1B07AC9C97D42D718D865D3E909258CFD00CCE24AC6E326A164D74DC0B4128928FF32603847
310
2BA13128B1252AC747C6BAB984FC68F0B87FE8960A5C09FE86CFB69FBA01504B0304140006080800CC70623BDBABAAF470010000D40300000C0000006662782F636F72652E786D6CC553D16E823014FD95A6AF4B694182CC941A83FA05FB810A9511A125A5257EFE2E82712ECEB8A7F100CD39F7F69E734AF9FADC366850B6
310
AF8DCE7018308C942E4C59EB2AC3DE1D498AD15A706B8CFB56869196ADCAF00863C12B6B7C374385D14E6907A836A59A41D9F7CA615434B0C8705F7CAA5606D23BA8E84F41278B93AC54100640439DE0BDB320004D43C63716C7C399D30917DCFBBA9CD9BA8469F5B156168B24CED3F7248AC8769F27244EB73B92EED8862C
310
B7F13E0C179B3C8F979C8ECD82BBBABDAA2BAC924E9558448CBD9330242CFA08E3154B5651FCC6D215639C8EE5774DBE2B5F6CF2B5768B68963BB5F5588420E442FC700B1139D4CB01F450C1E918227C2E09DF070D8140C84E1E9AAB8F1340832A9CB13130A5F1376A908D57309505ECF2A0DF179C4E9D30F5B239B87E3823
310
7A79C6F31DE1A8A5AEC08474B03C7837EAE4938639B44E5932B833D2C6B6B279CDC613877FA26EE21F4A2A4C63EC7F29A2F301D1F9F7A0E37D145F504B0304140006080800CC70623B9C113CC27E0000009D0000000B0000006662782F636E782E786D6C4DCCDF0A83201C86E15B91DFB94BFB330DD428C8FB886521330DA7
310
6397BF1A1DECE883878F57749FCDA1B7892F1BBC047A23808C7F84D9FA55424E0BE6803A256208E9EF06C84F9B91703228B1C690F78B66B34CD9A5439DF5CF0BFBF65E35BCA1B8D6A5C6F540381E886698B5741C695F9503EBA150A2F8958E3DC3EA0B504B0304140006080800CC70623B7DF2F77C2A010000120200003100
310
00006662782F41393633353835312D344632462D344230382D423046372D3739314545314133324237412F636F72652E786D6C8D51DB8EC22014FC15C2939B0D2DB4B45643319AE817EC0F6041255A68B86CFCFC856D4D76DF7CE190393373060EDB3DC707F856CE6B6B7A480A0C81328395DA5C7B18C3057510EC3873D686
310
3F34088C18550F330C39BB3A1BA7051AAC09CA84841A2BD5020AEF55806078A44B0FFD7053A328440C89E1EFC52486BBB8AA8214A99D789CF9E05200300FC927E4FB4D5B375D43103D5527440FB843077C5AA3F5861C8F645F5787F59E95B390B318B55CE45AA638FAA2957BD7248B390B7A7CC51F9C124149C82B8C378810
310
84AB2F42B7B8DD56F413775B8C5999E9FF4471926F8AA236A1AE96B8B3CC434E5839373893369E1FAF30EA395917409EB7F26AF8801C171837A4A6AC9C89E9F9C9B1A58BA30FD6A5EF5DDDCF894B9AD9B6A59C957943A9FCAE2FD5BC4DFE03504B0304140006080800CC70623BAD7543B64E01000033030000300000006662
310
782F41393633353835312D344632462D344230382D423046372D3739314545314133324237412F636E782E786D6CD593CD6EC32010845F0571AD6CE3D48AD20813A9873E410FBD12D82434182C7EAAE6EDBB2424CD25871E7B41D6EC30B3FA84F9E67BB2E40B4234DE8DB46F1925E094D7C6ED479AD3AE5951B2113C789FEE
310
6C943839C1488B4C05DF079FE72A69D8C96C13AAD6B8631503449F83828872B949AC57D26200B826A308D316B4064D6E46FCDA41C05550DC9E483A00797BFD207EFB092A45DE9514C1BBD22178396BD39D891265658C238DEA00936C654E5E433CB65A26D9F6EDB5EBC14EBF49A45CB856E66048291F6939A9A81BB5C89177
310
38143CA680F4AA299D66A042CEB3354A2684DC9D8D178FE0D9B8B41CAAD720F880EE7EF93C0C18769E099ECC04D5A102C8049A8A05632F4DDF376CF1DE0F6BB65C2F8627B65A33C6BB62177CEBBDAD973006829F89F22E814B54F4BC2BE347F8AA8F681390B50FA73F804400B5F542E796F19FF974E7F78DB802FE05E20750
310
4B0304140006080800CC70623BE75B7789680500003C100000340000006662782F41393633353835312D344632462D344230382D423046372D3739314545314133324237412F6F626A656374732E786D6CAD575B8F9B3818FD2B887D06C22499CB8AA1CA655245D5B455A356FB305264C061D8018C6C3393D95FBFC7600890
310
A4CD5EF210B0B1BFEBF98E3F7B1FF6596ABC522E1296DF9BAE3D320D9A872C4AF2F8DE2CE5CEBA358D0FBEC719939D65A691938CDE9B6ADAF4BD98B3B2D05311DD91329583D9D5FC0F438434A7A611A644887B5384CF34233629258BA878B12322891DEFF6B66BD70BFB62634E8AE781D082709A4B588AF91C528CDA28B73F
310
1C998EEF39EABBEFA97FBD6A7C7E9553F9D3D79FE442923C3C523610337627CB87ABE99D359D4CC6D6E4FACAB5E6ABF9D2726FC6A3C5F56271377BB88362213924694B38DD99FE47C48627A1E7D49F5A8BB5E1A74C0A599ED3B0F21F1E56366B89112D681E218F0915D0D6F17AD41FBA2A369DCF6335D62ABBD39779D5DDD1
310
11D4D8DE3CBB96B2E04FB8202E41051754A1AA8E8F76B4C6DFE810B580B1547F4B84911149794252234D024EF8BBE963A95AE27B3D310A9D5C215C7960FAEE415ED75694C6AFB17BCACA5D99A60A9AA65F217B0BFC53292ACB92BF283FAD0D3621576592CB5BED907C2FA8E9DF794E35E97BEA31BED21FEB401ABB94C44839
310
DCACBF0E1C5DA8DA5B2F4DFFD32AD86F543D9E565E7056502E157C00AD2671CD534549AB752FCA9CDA00677A313F04E51B22FF19E57B300579E3C97EB29F682D92935CEC18CF901B7B54FD8C51F362B56FC72FE0B3C1EAE335EDCCBF5AEC39ADB17DC238973F804BA5E6F6BFE7AF1FB32E523BE9F3BD571418E3631DCA4D48
310
5250CF639223210A9446CA30052EDF057BD35F8329C1ECD84552BF0DC8D18BE7BCE23BFE6BD960AB4A7DE79923A103BEBD80F911CBAA2C60DB19B01CF164A5583B772EE6D3FFA56666CBCDA74DC97724A48F9A58967497E489C4D979006FD7A05E227A1EBDD0F737C623387A9C844D3709995625106D157315F8B8392CD4E0
310
A0B9A720C4BE9829CEF37EA1E13111214D53925356365ADA634861B52519DD27A00AEB808EAF0628E6F435519D446F45CF2C9CF5214F0A15B2F6D06B79DA3EE3CBF7F56780D2F4E7EF73A0F5E5B02A38D07DC852C6B7C1FBB6664213E0C39E3EBA7FF4E1AD23EA2829407C85E586727488B751B2DB9502BC7B228A3FD68B6E
310
A65A22397E690AA8D158D7E404EC8CDA235CC3B7D1898680131CEC2CDF2638C65196279577750F15884AEE19F94199155B92B13297978469D4F8D358DF0AEF7631E28DC8F0D9F437D5D39A83B2231A1D52D543813A824EF8D44BCFF2FA6A31BD1E8DAD87F1CCB526B3879935BF59CDADD5C37479BB1CDD4CA7B3556B516589
310
EF352754B706114D9C885EC9131DE6EFEB43D99AFE2391C2F958179413D7CFEF6B1B6DB1E7600F00DE6E5C67454A339A4BA2E0FBA85ED26F045D454F463DBFCE484C2F90F2E5E3666003662ED8F755951A7D1BECD5B30B550B2785C8E7320B7292A4838DDA71BBC863ED7613CAF659337A3354231D4FF4A182A54904C2898C
310
98B28C4AD0CE056CCF332A80986E571EE9DBC305BB5FEB7E509220A58D25CF042D712A806AC0AD0C657FDEF80D2D9CEAA2EE4D1C76F60BFE74219A06527D6F82DF6412526107381E55E353090704D085B52408A8913C4ED159D79BDA71BB4BC506F4831350EB6F975CD22D69BF7AC49B91A2C0A9DDA3D5CA36AD20FC478E37
310
E61844E2352865EBCB61A275A65283CAAA9DD27703B4102F5AF51EF5F573B75CBB5AD38BC845F7A49F82A0966A49C2E3EA5EA0ECD326CD965F1DB402C6FA8B51A4658C5C5E2EC9E214602E55810345408596591009A82E7E7FFACA19EEA299B14A0081A705CB3296EBC14CDF658DCD336EA6D1136881AAEB87B81AB9EE53D5
310
F5EB8BC8362082DA24122F98680A4E7930C01A0079749CEA14382A0783E5EBA5A10F8C098456A03D6A4AEB6BB881E2513747552A5DB22C7EDAF83BD5528081A365F7FF06504B0304140006080000CC70623B000000000000000000000000350000006662782F41393633353835312D344632462D344230382D423046372D37
310
39314545314133324237412F76657274696365732E62696E504B0304140006080800CC70623BF270F1330600000004000000360000006662782F41393633353835312D344632462D344230382D423046372D3739314545314133324237412F747269616E676C65732E62696E636660600000504B0304140006080000CC7062
310
3B000000000000000000000000370000006662782F41393633353835312D344632462D344230382D423046372D3739314545314133324237412F617474726962757465732E62696E504B0304140006080800CC70623B08DA0BD19000000041010000360000006662782F41393633353835312D344632462D344230382D4230
310
46372D3739314545314133324237412F6469726563746F72792E786D6C858F410AC3201045AF22B36F53E9A60B35CBEEBAE80D244E44489C6234F4F835464A48035D0DF398FF9F8AF63D0E6CC63039F212F8F9020C7D47C6792B21C5FE7403D62A1188E2E60C98D7234A5830286103A55745067B9D86B8A3CF9C7F90C11DE6
310
07FB144396D7B6A82D282E9A152AD114D5EF2CB866EEE831B8EEA07A7BB5A8D7D61A2BAAEB7FD5F70921FF497D00504B0304140006080800CC70623BEDD1DC58FD000000A00100003B0000006662782F41393633353835312D344632462D344230382D423046372D3739314545314133324237412F7265736F75726365732F
310
636F72652E786D6C8D504B6E833010BD0A9A6D65B00922041947112427E8052C33A156828DFCA97AFC9A40A576D7CDCCE87D344F8F9FBFE667F689CE6B6B3A6039850C8DB2A336530731DC4903D95970676DF82583CCC8193B5861107C72362E3BA4AC096842428D1D7107A5F7182053CF7474E0D507CE32973124857FE48B
310
540F3961CEF244279DE03EB81420DB9EAC1384436FA353E879B1B182C7A8C75DA3C7F453DF353A1075D537A7BA6464B8F535A99AE14A9A2BBD90E350DD183B5CFABE3AF262350B1EF4FC9351399401471025A527C218A1E53BAB5A5AB765F5469B96525EACF23FA6B88CFF34456DC2A1DCE36E360F82A5202F42F062ED2BAD
310
579969AFDD8A6F504B010214000A0000080000CC70623B3DEE336E79000000790000001B00000000000000000000000000000000006175746F6465736B2D64657369676E2D7061636B6167652E786D6C504B01021400140006080800CC70623BD486FD9CA0000000F40000001300000000000000000000000000B20000005B
310
436F6E74656E745F54797065735D2E786D6C504B01021400140006080800CC70623B853B8169EB0000007C010000080000000000000000000000000083010000636F72652E786D6C504B01021400140006080800CC70623B55019EA25F0000007C000000070000000000000000000000000094020000636E782E786D6C504B
310
01021400140006080800CC70623BDBABAAF470010000D40300000C00000000000000000000000000180300006662782F636F72652E786D6C504B01021400140006080800CC70623B9C113CC27E0000009D0000000B00000000000000000000000000B20400006662782F636E782E786D6C504B01021400140006080800CC70
310
623B7DF2F77C2A010000120200003100000000000000000000000000590500006662782F41393633353835312D344632462D344230382D423046372D3739314545314133324237412F636F72652E786D6C504B01021400140006080800CC70623BAD7543B64E010000330300003000000000000000000000000000D2060000
310
6662782F41393633353835312D344632462D344230382D423046372D3739314545314133324237412F636E782E786D6C504B01021400140006080800CC70623BE75B7789680500003C10000034000000000000000000000000006E0800006662782F41393633353835312D344632462D344230382D423046372D3739314545
310
314133324237412F6F626A656374732E786D6C504B01021400140006080000CC70623B0000000000000000000000003500000000000000000000000000280E00006662782F41393633353835312D344632462D344230382D423046372D3739314545314133324237412F76657274696365732E62696E504B01021400140006
310
080800CC70623BF270F133060000000400000036000000000000000000000000007B0E00006662782F41393633353835312D344632462D344230382D423046372D3739314545314133324237412F747269616E676C65732E62696E504B01021400140006080000CC70623B0000000000000000000000003700000000000000
310
000000000000D50E00006662782F41393633353835312D344632462D344230382D423046372D3739314545314133324237412F617474726962757465732E62696E504B01021400140006080800CC70623B08DA0BD1900000004101000036000000000000000000000000002A0F00006662782F41393633353835312D344632
310
462D344230382D423046372D3739314545314133324237412F6469726563746F72792E786D6C504B01021400140006080800CC70623BEDD1DC58FD000000A00100003B000000000000000000000000000E1000006662782F41393633353835312D344632462D344230382D423046372D3739314545314133324237412F7265
310
736F75726365732F636F72652E786D6C504B0506000000000E000E0080040000641100000000
  0
XRECORD
  5
39D3
102
{ACAD_REACTORS
330
1F7
102
}
330
1F7
100
AcDbXrecord
280
     1
102
MATERIAL
148
0.0
149
0.0
149
0.0
 93
        0
 94
       63
282
     0
 72
     1
 77
     1
171
     1
175
     1
179
     1
273
     0
  0
XRECORD
  5
1F8
102
{ACAD_REACTORS
330
1F7
102
}
330
1F7
100
AcDbXrecord
280
     1
 70
     1
 90
429727718
  1
30362254-06B7-45E0-A893-8CFA70E3D6BC
310
504B03040A0000080000CC70623B3DEE336E79000000790000001B0000006175746F6465736B2D64657369676E2D7061636B6167652E786D6C3C3F786D6C2076657273696F6E3D22312E302220656E636F64696E673D227574662D3822203F3E3C666F726D6174733E3C666F726D61743E687474703A2F2F736368656D612E
310
6175746F6465736B2E636F6D2F64657369676E2D7061636B6167652F323030393C2F666F726D61743E3C2F666F726D6174733E504B0304140006080800CC70623BD486FD9CA0000000F4000000130000005B436F6E74656E745F54797065735D2E786D6C7D8EC10E82300C865F65E91D8A1E8C310C0EEA1BF002731658846E
310
D98AC1B77784ABF1D8FE5FBFBF75BBCE937A534CCEB38643598122B6FEE978D0B0485F9C41B54DDD7D022595594E1A469170414C76A4D9A4D207E29CF43ECE46F218070CC6BECC4078ACAA135ACF422C856C0E68EA1BF5669944DDD7BCDE7B1F8E415D77AECB980613C2E4AC91FC167A2B244592486606FC29C8FD7F045B9A
310
EF7053A7E60B504B0304140006080800CC70623B1EC5D7A3EB0000007C01000008000000636F72652E786D6C8D90416EC3201045AF82665B6103C6756C6122AB4D4ED00B204C5C94182C03558F5F9C3852BBEB6A467FFE9B197D71FC9E6FE8CBACC17AD7032D0820E3B41FAD9B7A48F1820F808E52ACDEC75F36404ECDA687
310
4D0629A6D5A76597B477D1B89855E747B38B2A041301E95B6E7A08FAD3CCAA50296647B8168BD2573599823EBB0CA76447F43862C7BCCF5EAC59410E4DDD9C7973C2755553CCCFA4C603E3040F1565ED3B1FDE4E432BCA0D9622DAF9795FAF464533826484B498524CD807E51D79ED187F21878E10516EF63F505AC67F42C9
310
BA58B1FDDD071640D2FCC87D2045B96591CB3DA85CB7DCE40F504B0304140006080800CC70623B55019EA25F0000007C00000007000000636E782E786D6C4DCB3B0E80201045D1AD90E915ED2CF8AC45050C11660C8261F98AB1B07AC9C97D42D718D865D3E909258CFD00CCE24AC6E326A164D74DC0B4128928FF32603847
310
2BA13128B1252AC747C6BAB984FC68F0B87FE8960A5C09FE86CFB69FBA01504B0304140006080800CC70623B8C9102E971010000D40300000C0000006662782F636F72652E786D6CC5535B6E833010BC8AE5DF0A6C08340F1947A84D4ED00B38C6A128602363A31CBFCB234A53A551FA553EC09AD9F5CE8C31DB9E9B1AF5CA
310
7695D1198E428A91D2D214952E33ECDD315861B4E5CC1AE3BE9561A445A3323CC098B3D21ADFCE9034DA29ED00D5A6503328BA4E398C640D8B0C77F253352214DE4145770A5B214FA2546114020D759C75CE8200340D19DE981F0F6746269C33EFAB6266AB02A655C74A59CCF365BADC27CB5D902ED22848F6340DF238A141
310
BE88E2F57B92BFEDF23523433367AE6A2EEAA455C2A902F398D2751045018D3FA264435F3771F242571B4A1919CA6F9A7C5B3CD9E42BED16F12C776AEB308F40C848FC700B1139D4891EF410CEC810227CC6846F8386402064270EF5C5C709A05E49676C024C61FC95EA45ED154CA5211D1FF4FB8291A913A68E9B83EBBB33
310
E2A7673CDE118E5AE8124C0807CB8377834E366998436B950D7A7746DAD846D4CFD978E0F04FD455FC5D49D2D4C6FE9722321F10997F0F32DC47FE05504B0304140006080800CC70623BFFEA85907E0000009D0000000B0000006662782F636E782E786D6C4DCCD10A83201886E15B91FFDC95D95A811AB6F23E625948A6C3
310
E9D8E5AF46073BFAE0E1E365ED67B3E8ADC3CB78C7815C7240DA3DFC64DCC221C519D7805AC182F7F1EF06C88D9BE6703008B6049F9E274D7A1E938DBB5AE3D6131B2589BA0D3D965551E0B2EA732C9B9A624AAEB41E3A557677029960D9AFB4EF11165F504B0304140006080800CC70623B4FEEA4082C0100001202000031
310
0000006662782F39464131463745442D413632322D343644302D413938332D3331353338454246344243312F636F72652E786D6C8D515B6EC32010BC0AE2AB55850DD871ED0813254D72825EC00192A2C460F1A872FC42ED48ED5F7E00CDCECCCEB26C731F6FE05B39AFADE921293004CA082BB5B9F43086336A21D870E6AC
310
0D7F68109861543DCC30E4ECE26C9C164858139409093556AA051CBC570102714B8F1E7AF1A5C6A11862480C7F2DA6415C878B2A4891CA89C7990F2E050073937C42DE1DB7E4F87ED8A36D4329AA9B3D46DBAEAD504556557BD81DEBDD0761E52CE42C462D17B996298E3E6BE59E35C962CE821E1FF18553435012728A7187
310
0841987E927A8D9B35ADDF70BBC6989599FE4F1427F9A4286A132ABAC49D651EF234CD5CE04CDA78BA3DC2A8FB645D00B9DF8B57E215725C60BCA2A463E54C4CE327C7A65E1C7DB02E7DEFCBF594B864C5CA6CDBD49C957943E9FA5D5FBAF336F90F504B0304140006080800CC70623BAD7543B64E01000033030000300000
310
006662782F39464131463745442D413632322D343644302D413938332D3331353338454246344243312F636E782E786D6CD593CD6EC32010845F0571AD6CE3D48AD20813A9873E410FBD12D82434182C7EAAE6EDBB2424CD25871E7B41D6EC30B3FA84F9E67BB2E40B4234DE8DB46F1925E094D7C6ED479AD3AE5951B2113C
310
789FEE6C943839C1488B4C05DF079FE72A69D8C96C13AAD6B8631503449F83828872B949AC57D26200B826A308D316B4064D6E46FCDA41C05550DC9E483A00797BFD207EFB092A45DE9514C1BBD22178396BD39D891265658C238DEA00936C654E5E433CB65A26D9F6EDB5EBC14EBF49A45CB856E66048291F6939A9A81BB5
310
C8917738143CA680F4AA299D66A042CEB3354A2684DC9D8D178FE0D9B8B41CAAD720F880EE7EF93C0C18769E099ECC04D5A102C8049A8A05632F4DDF376CF1DE0F6BB65C2F8627B65A33C6BB62177CEBBDAD973006829F89F22E814B54F4BC2BE347F8AA8F681390B50FA73F804400B5F542E796F19FF974E7F78DB802FE05
310
E207504B0304140006080800CC70623B16AB87BA640500003C100000340000006662782F39464131463745442D413632322D343644302D413938332D3331353338454246344243312F6F626A656374732E786D6CAD575B6FA33818FD2B887DE6924B3BED8A326A92B68A663B534DD4D13E548A0C38942D60649B369D5FBFC7
310
600890A493BDE42160637FD7F31D7FF63E6FB3D478A55C242CBF3247B66B1A340F5994E4F19559CA8D75611A9F7D8F33263BCB4C232719BD32D5B4E97B316765A1A722BA21652A07B3B7B33F0D11D29C9A46981221AE4C113ED38CD8A4942CA2E2C58E882476BCD9DA23BB5ED8171B73523C0F841684D35CC252CCE79062D4
310
468DFA43D7747CCF51DF7D4FFDEB5593E3AB9CCA9FBEFE241792E4E19EB28198C968BAB8199F5D5A67D3E9C49A9E8F47D6EC76B6B0469F26EEFC7C3EBFBCBEB98462213924694B38DD98FE1D62C393D073EA4FADC5DAF04326852CCF6958F90F0F2B9BB5C48816348F90C7840A68EB78EDF68723159BCEE7891A6B95DDE9D3
310
BCEAEEE8086A6C6F9E5D4B59F0175C10A7A0820BAA5055C7473B5AE3CFDD452D602CD5DF12616444529E90D448938013FE6EFA58AA96F85E4F8C42275708571E98FE6827AF6B2B4AE3D7D83D64E5A64C53054DD3AF90BD06FEA9149565C94FCA0F6B834DC85599E4F2423B24DF0B6AFA979E534DFA9E7A4CC6FA631D486393
310
921829879BF5D781A373557BCB85E97FB90DB62B558F8795179C15944B051F40AB495CF35451D26A4727654E6D8033BD98EF82F21D91FF8AF2DD9982BCF1643BDD4EB516C9492E368C67C88DED563FC36D5EACF66DFF057C3658BDBFA69DF9578B3DA735B64F18C7F20770A9D45CFCF7FCF563D6456A277DBEF78A02637CA2
310
43B90A490AEAB94F72244481D24819A6C0E59B606BFA4B3025981DBB48EAB701D97BF19C577CC77F2D1B6C55A9EF3C732474C0B727303F625995056C3B02963D9EAC146BE78EC5FCEC7FA999EBC5EACBAAE41B12D27B4D2C0BBA49F244E2ECDC81B76B502F113D8F5EE8FB1BE3111CDD4FC2AA9B844CAB1288B68AB90A7CDC
310
1C166AB0D3DC5310625FCC14E779BFD0709F8890A629C9292B1B2DED31A4B0DA928CEE135085754027E3018A397D4D5427D15BD1330B677DC8934285AC3DF45A9EB68FF8F2B8FC0A509AFEECFD0FF2DE25CC6047F7214B195F07EFEB9A094D800F7BFAE8FED187B78EA8A3A400F115961BCAD1215E47C966530AF0EE8128FE
310
58CEBB996A8964FFA529A046635D9353B0336A8F700DDF46271A024E70B0B37C9DE01847591E54DED53D54202AB947E4076556AC49C6CA5C9E1226B7F1A7B1BE15DEED62C41B91E1B3E9AFAAA735036547343A925075041DF0A9979E893B391F8FCFA6967B3EFB644DCF6E5CEBFAE272625DCC6FAF3FB93793C5F90CE1EF57
310
407342756B10D1C489E8953CD1617E5CEECAD6F4EF8914CE5D5D504E5C3F1F9736DA62CFC11E00BCDDB8CC8A9466349744C1F75EBDA4DF09BA8A9E8C7A7E9991989E20E5DBDD6A6003664ED8F7A04A8DBE0DF6EAD9B9AA858342E47399053949D2C146EDB85DE4B176BB0965FBAC19BD19AA918E27FA50C1D22402E144464C
310
59462568E704B6E71915404CB72B8FF4EDE184DDAF753F284990D2C6926782963815403548A70C657FDEF80D2D9CEAA2AE4C1C76F60BFE74219A06527D6582DF6412526107381E55E353090704D085B52408D0933C4ED159D79BDA71BB4BC506F4831350EB6F979CD22D69BF7AC49B91A2C0A9DDA3D5CA36AD20FC478E37E6
310
1844E2352865EBCB6EA275A652E3836BE04EFB400BF1A2556F515F1FBB35B2AB35BD889C744FFA1004B5544B121E57F70215746DD2F5E2C1412B602CBF19455AC6C8E5E9922C4E01E65215385004546899059180EAFCF7A707CE7017CD8CDB0410789AB32C63B91E5CEBBBACB17AC6CD347A022D5075FD106377347AAABA7E
310
7D11590744509B44E205134DC1290F06580320F78E537D3D73540E06CB970B431F185308AD40BBD794D6D77003C5A36E8EAA54BA64597CD8F83BD552A080A365F7FF06504B0304140006080000CC70623B000000000000000000000000350000006662782F39464131463745442D413632322D343644302D413938332D3331
310
353338454246344243312F76657274696365732E62696E504B0304140006080800CC70623BF270F1330600000004000000360000006662782F39464131463745442D413632322D343644302D413938332D3331353338454246344243312F747269616E676C65732E62696E636660600000504B0304140006080000CC70623B
310
000000000000000000000000370000006662782F39464131463745442D413632322D343644302D413938332D3331353338454246344243312F617474726962757465732E62696E504B0304140006080800CC70623B08DA0BD19000000041010000360000006662782F39464131463745442D413632322D343644302D413938
310
332D3331353338454246344243312F6469726563746F72792E786D6C858F410AC3201045AF22B36F53E9A60B35CBEEBAE80D244E44489C6234F4F835464A48035D0DF398FF9F8AF63D0E6CC63039F212F8F9020C7D47C6792B21C5FE7403D62A1188E2E60C98D7234A5830286103A55745067B9D86B8A3CF9C7F90C11DE607
310
FB144396D7B6A82D282E9A152AD114D5EF2CB866EEE831B8EEA07A7BB5A8D7D61A2BAAEB7FD5F70921FF497D00504B0304140006080800CC70623B0D6EF93BFE000000A00100003B0000006662782F39464131463745442D413632322D343644302D413938332D3331353338454246344243312F7265736F75726365732F63
310
6F72652E786D6C8D50596E833010BD0A9ADFCA60B334011947A8694ED00B586642AC041B79A97AFC9A40A5F6AF3F33A3B7689E1E3F7DCD8FEC139DD7D6F4C0720A191A65476DA61E62B892236427C19DB5E1970C322367EC618541F0C9D9B8EC90B226A009093576C41D94DE63804C3DD2D18357379C652E63480A7FCF17A9
310
EE72C29CE5894E3AC17D702940B63D59270887DE46A7D0F36263058F518FBB468FE9A7BE6A7420864373B8D4873369AA8691FA421B3294352543C5CAF65C0F6FEF43CB8BD52C78D0F34F46E550061C419494B6843142CB0F5677F4B52BEB177AEC28E5C52AFF638ACBF84F53D42654E51E77B379102C05791282176B5F693D
310
CB4C7BED567C03504B010214000A0000080000CC70623B3DEE336E79000000790000001B00000000000000000000000000000000006175746F6465736B2D64657369676E2D7061636B6167652E786D6C504B01021400140006080800CC70623BD486FD9CA0000000F40000001300000000000000000000000000B20000005B
310
436F6E74656E745F54797065735D2E786D6C504B01021400140006080800CC70623B1EC5D7A3EB0000007C010000080000000000000000000000000083010000636F72652E786D6C504B01021400140006080800CC70623B55019EA25F0000007C000000070000000000000000000000000094020000636E782E786D6C504B
310
01021400140006080800CC70623B8C9102E971010000D40300000C00000000000000000000000000180300006662782F636F72652E786D6C504B01021400140006080800CC70623BFFEA85907E0000009D0000000B00000000000000000000000000B30400006662782F636E782E786D6C504B01021400140006080800CC70
310
623B4FEEA4082C0100001202000031000000000000000000000000005A0500006662782F39464131463745442D413632322D343644302D413938332D3331353338454246344243312F636F72652E786D6C504B01021400140006080800CC70623BAD7543B64E010000330300003000000000000000000000000000D5060000
310
6662782F39464131463745442D413632322D343644302D413938332D3331353338454246344243312F636E782E786D6C504B01021400140006080800CC70623B16AB87BA640500003C1000003400000000000000000000000000710800006662782F39464131463745442D413632322D343644302D413938332D3331353338
310
454246344243312F6F626A656374732E786D6C504B01021400140006080000CC70623B0000000000000000000000003500000000000000000000000000270E00006662782F39464131463745442D413632322D343644302D413938332D3331353338454246344243312F76657274696365732E62696E504B01021400140006
310
080800CC70623BF270F133060000000400000036000000000000000000000000007A0E00006662782F39464131463745442D413632322D343644302D413938332D3331353338454246344243312F747269616E676C65732E62696E504B01021400140006080000CC70623B0000000000000000000000003700000000000000
310
000000000000D40E00006662782F39464131463745442D413632322D343644302D413938332D3331353338454246344243312F617474726962757465732E62696E504B01021400140006080800CC70623B08DA0BD190000000410100003600000000000000000000000000290F00006662782F39464131463745442D413632
310
322D343644302D413938332D3331353338454246344243312F6469726563746F72792E786D6C504B01021400140006080800CC70623B0D6EF93BFE000000A00100003B000000000000000000000000000D1000006662782F39464131463745442D413632322D343644302D413938332D3331353338454246344243312F7265
310
736F75726365732F636F72652E786D6C504B0506000000000E000E0080040000641100000000
  0
XRECORD
  5
39D5
102
{ACAD_REACTORS
330
173
102
}
330
173
100
AcDbXrecord
280
     1
102
MATERIAL
148
0.0
149
0.0
149
0.0
 93
        0
 94
       63
282
     0
 72
     1
 77
     1
171
     1
175
     1
179
     1
273
     0
  0
XRECORD
  5
175
102
{ACAD_REACTORS
330
173
102
}
330
173
100
AcDbXrecord
280
     1
270
     1
271
     1
  0
XRECORD
  5
174
102
{ACAD_REACTORS
330
173
102
}
330
173
100
AcDbXrecord
280
     1
270
     1
271
     1
  0
XRECORD
  5
1FB
102
{ACAD_REACTORS
330
173
102
}
330
173
100
AcDbXrecord
280
     1
 70
     0
 90
1673772943
  1
ECE7A1D2-D628-4531-984C-D00F80459256
310
504B03040A0000080000CC70623B3DEE336E79000000790000001B0000006175746F6465736B2D64657369676E2D7061636B6167652E786D6C3C3F786D6C2076657273696F6E3D22312E302220656E636F64696E673D227574662D3822203F3E3C666F726D6174733E3C666F726D61743E687474703A2F2F736368656D612E
310
6175746F6465736B2E636F6D2F64657369676E2D7061636B6167652F323030393C2F666F726D61743E3C2F666F726D6174733E504B0304140006080800CC70623BD486FD9CA0000000F4000000130000005B436F6E74656E745F54797065735D2E786D6C7D8EC10E82300C865F65E91D8A1E8C310C0EEA1BF002731658846E
310
D98AC1B77784ABF1D8FE5FBFBF75BBCE937A534CCEB38643598122B6FEE978D0B0485F9C41B54DDD7D022595594E1A469170414C76A4D9A4D207E29CF43ECE46F218070CC6BECC4078ACAA135ACF422C856C0E68EA1BF5669944DDD7BCDE7B1F8E415D77AECB980613C2E4AC91FC167A2B244592486606FC29C8FD7F045B9A
310
EF7053A7E60B504B0304140006080800CC70623BD9DDAED0EC0000007C01000008000000636F72652E786D6C8D90416EC3201045AF82665B61836D9CD8C2444DD39CA01740405C94182C03558F5F9C3852BBEB6A467FFE9B197D7EF89E6EE8CB2CC17A37002D0820E394D7D68D03A478C17B4007C117EFE32F1B20272733C0
310
2A83E0E3E2D3BC49CABB685CCCAAF3DA6CA20CC14440EA969B0182FA34932C648AD911AEC52CD5558EA6A0CF2EC329598D1E47ACCEFBECC59A050463A7EA5833865FEBDD0E37353BE3EE8DBDE3F6786A48D375FBF6CC78B9C282473B3DEFABC5C86834888A900E538A49F5419B9EB47DD5BC907D4F082F57FB1F28CDFA9F50
310
B22ED6D5F6EE030B20687EE43E10BC5CB3C8E51E54AE6B6EE207504B0304140006080800CC70623B55019EA25F0000007C00000007000000636E782E786D6C4DCB3B0E80201045D1AD90E915ED2CF8AC45050C11660C8261F98AB1B07AC9C97D42D718D865D3E909258CFD00CCE24AC6E326A164D74DC0B4128928FF326038
310
472BA13128B1252AC747C6BAB984FC68F0B87FE8960A5C09FE86CFB69FBA01504B0304140006080800CC70623BA24EB22D72010000D40300000C0000006662782F636F72652E786D6CC5535B6E833010BC8AE5DF0A6C5E49888CA3A6694ED00B38E05014B091B1518EDFE511A5A9D228FD2A1F60CDEC7A67C6986DCE4D8D7A
310
69BA4AAB0C073EC548AA5C17952A33ECECD15B61B4E1CC686DBF9561A44423333CC098B3D268D7CE50AE9595CA02AA74216750749DB418E5352C32DCE59FB211BE70162ABA93DF8AFC244AE9073ED050C759670D0840D390E18DF9F1706664C23973AE2A66B62A605A75ACA4C13C4976E1364A12EF355A2EBD384AF65EFA96
310
BC7B8BED2EA6719AAE16FB8491A199335B351775B991C2CA02F390D2D40B028F861F41BCA68B7518BFD0D59A524686F29B26D7164F36B94AD9289CE54E6D1DE6010819891F6E21228B3AD1831EC219194284CF98F06DD01008846CC5A1BEF83801D4CBDC6A1303536877A57A513B0953A94FC707FDBE6064EA84A9E3E6E0FA
310
EE8CF0E9198F7784A316AA0413C2C2F2E0ECA0934D1AE6D05A69BCDE9E91D2A611F573361E38FC1375157F5752AE6B6DFE4B11990F88CCBF0719EE23FF02504B0304140006080800CC70623B408A7D3B7C0000009D0000000B0000006662782F636E782E786D6C4DCCD10A83201886E15B91FFDC552A92A0064DBC8F581632
310
D3703A76F9ABD1C18E3E78F878E5F0D9027ABBFCF2292AE86E2D20171F69F6715550CB827B40839639A5F2770314A7CD293819B45C73AAFB45B35BA61ACAA1C1C7E7855C58C15BC331339661262CC762340413D68D77DA5B42298546CBE6573AF60CEB2F504B0304140006080800CC70623B449FB9BD290100001202000031
310
0000006662782F36394639363044362D344446342D343946362D394244322D3234314243333846323333332F636F72652E786D6C8D515B6EC32010BC0AE22B55850D98B871848994463E412FE002495162B07854397EA176A4F62F3F2C9A9D991D587EB84F37F0AD7D30CEF6905418026DA553C65E7A98E219ED203808EE9D
310
8B7F6810D871D23D2C3014FCE25D9A57483A1BB58D19B54EE9151C43D0110279CB971E06F9A5A7B11A53CC8C70ADE6515EC78BAE4895DB992778883E0700CB907242D17643D7E2538BD869608875438BBAE38922CAC8F1BDD90DB4691A5E2F42C153326A951B95E398B3D1FE599322163C9AE9115F7A3D46ADA0A018778810
310
84E907617BDCEE297BC5BB3DC6BC2EF47FA234AB2745C9D8D8D035EE220B50105E2F0DC1954B9FB747187D9F9D8FA0CCDB042D5FA0C015C65B42DF78BD10F3F3B363CB56C7109DCFDFBBB97E662ED92EB62D13BC2E1BCAE5777DB9966D8A1F504B0304140006080800CC70623BAD7543B64E01000033030000300000006662
310
782F36394639363044362D344446342D343946362D394244322D3234314243333846323333332F636E782E786D6CD593CD6EC32010845F0571AD6CE3D48AD20813A9873E410FBD12D82434182C7EAAE6EDBB2424CD25871E7B41D6EC30B3FA84F9E67BB2E40B4234DE8DB46F1925E094D7C6ED479AD3AE5951B2113C789FEE
310
6C943839C1488B4C05DF079FE72A69D8C96C13AAD6B8631503449F83828872B949AC57D26200B826A308D316B4064D6E46FCDA41C05550DC9E483A00797BFD207EFB092A45DE9514C1BBD22178396BD39D891265658C238DEA00936C654E5E433CB65A26D9F6EDB5EBC14EBF49A45CB856E66048291F6939A9A81BB5C89177
310
38143CA680F4AA299D66A042CEB3354A2684DC9D8D178FE0D9B8B41CAAD720F880EE7EF93C0C18769E099ECC04D5A102C8049A8A05632F4DDF376CF1DE0F6BB65C2F8627B65A33C6BB62177CEBBDAD973006829F89F22E814B54F4BC2BE347F8AA8F681390B50FA73F804400B5F542E796F19FF974E7F78DB802FE05E20750
310
4B0304140006080800CC70623B8D05915C650500003B100000340000006662782F36394639363044362D344446342D343946362D394244322D3234314243333846323333332F6F626A656374732E786D6CAD575B6FA33814FE2B887D06429276DA1565D4266D158D3A339A6846FB502932E050B66023DB74D2FDF5FB190C01
310
9276B2973C046C8ECFF53B17071F77456EBD502133CEAE6CDF9DD81665314F32965ED995DA3A17B6F5310C04E7AA47665B8C14F4CAD6DB7618A48257A5D94AE89654B91AEDDEDDFC61C998326A5B714EA4BCB265FC440BE2924AF184CA6737218AB8E976E7FA6E4338649B0A523E8D98964450A6A029F619B8588D52FE7039
310
B1BD30F0F4F730D0FF866AF6369557DB33949F31A9088B0F848DD8CCFCF9F2767A76E99CCDE733677E3EF59D9BBB9BA5E37F984D16E78BC5E5F5ED25044B25C0C96822E8D60EEFE11B91C581D77CEA34368A1F5329E68CD1B8B61F16D63A1B8E092D294B10C78C4A48EB593D192E7DED9BDEE7995E1B91FDEDD3ACEA9FE831
310
6A756F9F7D4D79F4274C90A7A04248AA51D5F8C718DAE06FB2F75AC4796EBE65D22A88A22223B995679120E2D50E41AA49C260C046A35368846B0BECD0DFF3EBEB8AD4F835768F69B9ADF25C43D30E6B646F807FAA64AD59F61715C7A54127C4AACA98BA3006A9D792DAE165E0D59B61A01FB3A9F9D838D2DAE62445C86166
310
F37564E842E7DE6A69879FEEA2DD5AE7E371E1A5E025154AC307D06A03D73EB5978C58FFA4C8E9033066E0F3BD53BEC1F39F91BE7B55103791EDE6BBB991A2046172CB4581D8B893FA674DDA17A77B3B7C413D1B511FD2743BFF8A38F03A658705E3ADF8015C3A3417FF3D7E439FF591DA0B5F18BC20C1B8981957AE6392A3
310
F43C640C01D1A0B4728E2DD4F26DB4B3C3152A252A3B4E913CEC1C72F012782FF88EFF8637AA552DBEF76408E8A8DE9E50F9E1CB3A2DA0DB1B6039A893B56063DC5B3E3FFB5F72E67AB9FEB4AEC496C4F4C1149625DD662C53E89D7BF0F6151A046260D1337DFDC94502430F83B0EE07A130A224BCAD7DAE1D9FB6CD422FF6
310
920702629C4BB9AE79C12F243C6432A6794E18E5552BA56B431AAB5D91317302B2B071E86C3A42B1A02F999E24061403B5D0EB639195DA655DD3EBEAB4FB862DDF579F014AD0E73C22F99E28DA57FB98E75C6CA2D74D53086D600F4786E0FE3144B771A8A7B900F03594DB8A633CBC49B2EDB69228BB479CF863B5E807AAAB
310
23872F6DFEB4129B949CA33823F58830E86D65621E10047D9DB34D862E8EAC3C2ABC2F7B2C40D67CDFE01F5545B92105AF983AC54D93D69E56FB8E797F88913F898A9FEC705D3F9D1B54EC8426FB500D40A03BD0119B06E1B95DDC7EB8F6975367793EBD70E66733DFB9BC982F9CE564727731999F5D4ECFCE3B8D6A4DC2A0
310
6D50FD148437D110834A64C6CDDF57FBACB5C307A2A477DFE4939736CFEF2B175371E0E10CF0DD1D5C15654E0BCA14D1E87DD02FF93782A162C0A3D95F1524A52770F972BF1EE9809D13CE7DD599467F8ECE9ADD85CE85A34CD45355448C64F9E8A031DC2D596ACC6E5DD93D9B82DE2EF5CAF81363A8E47996A0DE24564A79
310
4115AACE09C55E14540231FDA13C319787134EBF34E3A022514E5B4D9E0826E25C02D5805B15ABE1BEF51B26383D445DD9E875EE33FE4C22DA16427D65A3BCA92CA6D28DD01DF5DC53330704308475351050232CCD31583787BA75774AFB06E5070DD0C8EF484E19968C5D83BA5B90B244D31E54D55A372320FE4786B7EA58
310
44E135AA5467CB7EA333A61683CC6A8C3257034C10CF46F40EF9F5BE59BE5BD30C3C72D235E95D10345C1D45445A5F0BB47E46A5EBE5570F9380B5FA629579952296A773720405982B9DE04011506178964401AA8BDF1FBF0A8EAB6861DD6580C0E38217056766716DAEB2D6FA0917D3E4116581EADB879C4E7CFFB11EFACD
310
3D641311495D92C8676CB409A72D18610D803CE8A626049E8EC1887CB5B44CC39883690DDA8399B4B9855B481E7D71D4A9D22F96E5BB73BF5793020C02137BF837504B0304140006080000CC70623B000000000000000000000000350000006662782F36394639363044362D344446342D343946362D394244322D32343142
310
43333846323333332F76657274696365732E62696E504B0304140006080800CC70623BF270F1330600000004000000360000006662782F36394639363044362D344446342D343946362D394244322D3234314243333846323333332F747269616E676C65732E62696E636660600000504B0304140006080000CC70623B0000
310
00000000000000000000370000006662782F36394639363044362D344446342D343946362D394244322D3234314243333846323333332F617474726962757465732E62696E504B0304140006080800CC70623B08DA0BD19000000041010000360000006662782F36394639363044362D344446342D343946362D394244322D
310
3234314243333846323333332F6469726563746F72792E786D6C858F410AC3201045AF22B36F53E9A60B35CBEEBAE80D244E44489C6234F4F835464A48035D0DF398FF9F8AF63D0E6CC63039F212F8F9020C7D47C6792B21C5FE7403D62A1188E2E60C98D7234A5830286103A55745067B9D86B8A3CF9C7F90C11DE607FB14
310
4396D7B6A82D282E9A152AD114D5EF2CB866EEE831B8EEA07A7BB5A8D7D61A2BAAEB7FD5F70921FF497D00504B0304140006080800CC70623BCA768048FE000000A00100003B0000006662782F36394639363044362D344446342D343946362D394244322D3234314243333846323333332F7265736F75726365732F636F72
310
652E786D6C8D50596E833010BD0A9ADFCA60D600328E9AA639412F609909B1126CE4A5EAF16B0295DABFFECC8CDEA2797AECF8353F924FB44E193D409E5248504B332A3D0D10FC95B4901C39B3C6F85F3248B49871801506CE266BC2B243D2688FDA47549B11775038871E12F988C7004EDE7016A9083E2ADC3D5D84BC8B09
310
D33C8D74D471E6BC8D0192EDC93A815B742658898E651BCB59086ADC356A8C3FD555A1055ED7E7E254D615792D0F075295F585746FF53B694EE78A565DD736979A65AB9933AFE69F8CD2A2F038022F28ED489E135A7CE4554F9BBEA85E68DB53CAB255FEC71496F19FA6A0B42F8B3DEE6673C0F318E4497096AD7DC5F52C33
310
EEB55BFE0D504B010214000A0000080000CC70623B3DEE336E79000000790000001B00000000000000000000000000000000006175746F6465736B2D64657369676E2D7061636B6167652E786D6C504B01021400140006080800CC70623BD486FD9CA0000000F40000001300000000000000000000000000B20000005B436F
310
6E74656E745F54797065735D2E786D6C504B01021400140006080800CC70623BD9DDAED0EC0000007C010000080000000000000000000000000083010000636F72652E786D6C504B01021400140006080800CC70623B55019EA25F0000007C000000070000000000000000000000000095020000636E782E786D6C504B0102
310
1400140006080800CC70623BA24EB22D72010000D40300000C00000000000000000000000000190300006662782F636F72652E786D6C504B01021400140006080800CC70623B408A7D3B7C0000009D0000000B00000000000000000000000000B50400006662782F636E782E786D6C504B01021400140006080800CC70623B
310
449FB9BD290100001202000031000000000000000000000000005A0500006662782F36394639363044362D344446342D343946362D394244322D3234314243333846323333332F636F72652E786D6C504B01021400140006080800CC70623BAD7543B64E010000330300003000000000000000000000000000D20600006662
310
782F36394639363044362D344446342D343946362D394244322D3234314243333846323333332F636E782E786D6C504B01021400140006080800CC70623B8D05915C650500003B10000034000000000000000000000000006E0800006662782F36394639363044362D344446342D343946362D394244322D32343142433338
310
46323333332F6F626A656374732E786D6C504B01021400140006080000CC70623B0000000000000000000000003500000000000000000000000000250E00006662782F36394639363044362D344446342D343946362D394244322D3234314243333846323333332F76657274696365732E62696E504B010214001400060808
310
00CC70623BF270F13306000000040000003600000000000000000000000000780E00006662782F36394639363044362D344446342D343946362D394244322D3234314243333846323333332F747269616E676C65732E62696E504B01021400140006080000CC70623B00000000000000000000000037000000000000000000
310
00000000D20E00006662782F36394639363044362D344446342D343946362D394244322D3234314243333846323333332F617474726962757465732E62696E504B01021400140006080800CC70623B08DA0BD190000000410100003600000000000000000000000000270F00006662782F36394639363044362D344446342D
310
343946362D394244322D3234314243333846323333332F6469726563746F72792E786D6C504B01021400140006080800CC70623BCA768048FE000000A00100003B000000000000000000000000000B1000006662782F36394639363044362D344446342D343946362D394244322D3234314243333846323333332F7265736F
310
75726365732F636F72652E786D6C504B0506000000000E000E0080040000621100000000
  0
XRECORD
  5
176
102
{ACAD_REACTORS
330
173
102
}
330
173
100
AcDbXrecord
280
     1
270
     1
271
     1
  0
XRECORD
  5
177
102
{ACAD_REACTORS
330
173
102
}
330
173
100
AcDbXrecord
280
     1
270
     1
271
     1
  0
XRECORD
  5
39F7
102
{ACAD_REACTORS
330
39F6
102
}
330
39F6
100
AcDbXrecord
280
     1
102
ACAD_ROUNDTRIP_2012_MLEADER_STYLE
298
     1
  0
XRECORD
  5
3A09
102
{ACAD_REACTORS
330
3A08
102
}
330
3A08
100
AcDbXrecord
280
     1
102
DISPLAYNAME
  1
Metric50
102
FLAGS
 90
        0
  0
CELLSTYLEMAP
  5
39C9
102
{ACAD_REACTORS
330
162
102
}
330
162
100
AcDbCellStyleMap
 90
        3
300
CELLSTYLE
  1
TABLEFORMAT_BEGIN
 90
        5
170
     1
 91
        0
 92
    32768
 62
   257
 93
        1
300
CONTENTFORMAT
  1
CONTENTFORMAT_BEGIN
 90
        0
 91
        0
 92
      512
 93
        0
300

 40
0.0
140
1.0
 94
        5
 62
     0
340
11
144
6.0
309
CONTENTFORMAT_END
171
     1
301
MARGIN
  1
CELLMARGIN_BEGIN
 40
1.5
 40
1.5
 40
1.5
 40
1.5
 40
4.5
 40
4.5
309
CELLMARGIN_END
 94
        6
 95
        1
302
GRIDFORMAT
  1
GRIDFORMAT_BEGIN
 90
        0
 91
        1
 62
     0
 92
       -2
340
14
 93
        0
 40
1.125
309
GRIDFORMAT_END
 95
        2
302
GRIDFORMAT
  1
GRIDFORMAT_BEGIN
 90
        0
 91
        1
 62
     0
 92
       -2
340
14
 93
        0
 40
1.125
309
GRIDFORMAT_END
 95
        4
302
GRIDFORMAT
  1
GRIDFORMAT_BEGIN
 90
        0
 91
        1
 62
     0
 92
       -2
340
14
 93
        0
 40
1.125
309
GRIDFORMAT_END
 95
        8
302
GRIDFORMAT
  1
GRIDFORMAT_BEGIN
 90
        0
 91
        1
 62
     0
 92
       -2
340
14
 93
        0
 40
1.125
309
GRIDFORMAT_END
 95
       16
302
GRIDFORMAT
  1
GRIDFORMAT_BEGIN
 90
        0
 91
        1
 62
     0
 92
       -2
340
14
 93
        0
 40
1.125
309
GRIDFORMAT_END
 95
       32
302
GRIDFORMAT
  1
GRIDFORMAT_BEGIN
 90
        0
 91
        1
 62
     0
 92
       -2
340
14
 93
        0
 40
1.125
309
GRIDFORMAT_END
309
TABLEFORMAT_END
  1
CELLSTYLE_BEGIN
 90
        1
 91
        1
300
_TITLE
309
CELLSTYLE_END
300
CELLSTYLE
  1
TABLEFORMAT_BEGIN
 90
        5
170
     1
 91
        0
 92
        0
 62
   257
 93
        1
300
CONTENTFORMAT
  1
CONTENTFORMAT_BEGIN
 90
        0
 91
        0
 92
      512
 93
        0
300

 40
0.0
140
1.0
 94
        5
 62
     0
340
11
144
4.5
309
CONTENTFORMAT_END
171
     1
301
MARGIN
  1
CELLMARGIN_BEGIN
 40
1.5
 40
1.5
 40
1.5
 40
1.5
 40
4.5
 40
4.5
309
CELLMARGIN_END
 94
        6
 95
        1
302
GRIDFORMAT
  1
GRIDFORMAT_BEGIN
 90
        0
 91
        1
 62
     0
 92
       -2
340
14
 93
        0
 40
1.125
309
GRIDFORMAT_END
 95
        2
302
GRIDFORMAT
  1
GRIDFORMAT_BEGIN
 90
        0
 91
        1
 62
     0
 92
       -2
340
14
 93
        0
 40
1.125
309
GRIDFORMAT_END
 95
        4
302
GRIDFORMAT
  1
GRIDFORMAT_BEGIN
 90
        0
 91
        1
 62
     0
 92
       -2
340
14
 93
        0
 40
1.125
309
GRIDFORMAT_END
 95
        8
302
GRIDFORMAT
  1
GRIDFORMAT_BEGIN
 90
        0
 91
        1
 62
     0
 92
       -2
340
14
 93
        0
 40
1.125
309
GRIDFORMAT_END
 95
       16
302
GRIDFORMAT
  1
GRIDFORMAT_BEGIN
 90
        0
 91
        1
 62
     0
 92
       -2
340
14
 93
        0
 40
1.125
309
GRIDFORMAT_END
 95
       32
302
GRIDFORMAT
  1
GRIDFORMAT_BEGIN
 90
        0
 91
        1
 62
     0
 92
       -2
340
14
 93
        0
 40
1.125
309
GRIDFORMAT_END
309
TABLEFORMAT_END
  1
CELLSTYLE_BEGIN
 90
        2
 91
        1
300
_HEADER
309
CELLSTYLE_END
300
CELLSTYLE
  1
TABLEFORMAT_BEGIN
 90
        5
170
     1
 91
        0
 92
        0
 62
   257
 93
        1
300
CONTENTFORMAT
  1
CONTENTFORMAT_BEGIN
 90
        0
 91
        0
 92
      512
 93
        0
300

 40
0.0
140
1.0
 94
        2
 62
     0
340
11
144
4.5
309
CONTENTFORMAT_END
171
     1
301
MARGIN
  1
CELLMARGIN_BEGIN
 40
1.5
 40
1.5
 40
1.5
 40
1.5
 40
4.5
 40
4.5
309
CELLMARGIN_END
 94
        6
 95
        1
302
GRIDFORMAT
  1
GRIDFORMAT_BEGIN
 90
        0
 91
        1
 62
     0
 92
       -2
340
14
 93
        0
 40
1.125
309
GRIDFORMAT_END
 95
        2
302
GRIDFORMAT
  1
GRIDFORMAT_BEGIN
 90
        0
 91
        1
 62
     0
 92
       -2
340
14
 93
        0
 40
1.125
309
GRIDFORMAT_END
 95
        4
302
GRIDFORMAT
  1
GRIDFORMAT_BEGIN
 90
        0
 91
        1
 62
     0
 92
       -2
340
14
 93
        0
 40
1.125
309
GRIDFORMAT_END
 95
        8
302
GRIDFORMAT
  1
GRIDFORMAT_BEGIN
 90
        0
 91
        1
 62
     0
 92
       -2
340
14
 93
        0
 40
1.125
309
GRIDFORMAT_END
 95
       16
302
GRIDFORMAT
  1
GRIDFORMAT_BEGIN
 90
        0
 91
        1
 62
     0
 92
       -2
340
14
 93
        0
 40
1.125
309
GRIDFORMAT_END
 95
       32
302
GRIDFORMAT
  1
GRIDFORMAT_BEGIN
 90
        0
 91
        1
 62
     0
 92
       -2
340
14
 93
        0
 40
1.125
309
GRIDFORMAT_END
309
TABLEFORMAT_END
  1
CELLSTYLE_BEGIN
 90
        3
 91
        2
300
_DATA
309
CELLSTYLE_END
  0
XRECORD
  5
39CE
102
{ACAD_REACTORS
330
162
102
}
330
162
100
AcDbXrecord
280
     1
102
ACAD_ROUNDTRIP_PRE2007_TABLESTYLE
 90
      512
 91
        0
  1

 92
      512
 93
        0
  2

 94
      512
 95
        0
  3

  0
XRECORD
  5
39E1
102
{ACAD_REACTORS
330
39E0
102
}
330
39E0
100
AcDbXrecord
280
     1
102
RTVSPost2010Prop28
280
     1
102
RTVSPost2010PropOp28
 70
     1
102
RTVSPost2010Prop29
280
     1
102
RTVSPost2010PropOp29
 70
     1
102
RTVSPost2010Prop30
280
     0
102
RTVSPost2010PropOp30
 70
     1
102
RTVSPost2010Prop31
280
     0
102
RTVSPost2010PropOp31
 70
     1
102
RTVSPost2010Prop32
280
     0
102
RTVSPost2010PropOp32
 70
     1
102
RTVSPost2010Prop33
280
     0
102
RTVSPost2010PropOp33
 70
     1
102
RTVSPost2010Prop34
280
     0
102
RTVSPost2010PropOp34
 70
     1
102
RTVSPost2010Prop35
280
     0
102
RTVSPost2010PropOp35
 70
     1
102
RTVSPost2010Prop36
280
     0
102
RTVSPost2010PropOp36
 70
     1
102
RTVSPost2010Prop37
 90
       50
102
RTVSPost2010PropOp37
 70
     1
102
RTVSPost2010Prop38
140
0.0
102
RTVSPost2010PropOp38
 70
     1
102
RTVSPost2010Prop39
140
1.0
102
RTVSPost2010PropOp39
 70
     1
102
RTVSPost2010Prop40
 90
        0
102
RTVSPost2010PropOp40
 70
     1
102
RTVSPost2010Prop41ColorIndex
 90
       18
102
RTVSPost2010Prop41ColorRGB
 90
        0
102
RTVSPost2010PropOp41
 70
     1
102
RTVSPost2010Prop42
 90
       50
102
RTVSPost2010PropOp42
 70
     1
102
RTVSPost2010Prop43
 90
        3
102
RTVSPost2010PropOp43
 70
     1
102
RTVSPost2010Prop44ColorIndex
 90
        5
102
RTVSPost2010Prop44ColorRGB
 90
      255
102
RTVSPost2010PropOp44
 70
     1
102
RTVSPost2010Prop45
280
     0
102
RTVSPost2010PropOp45
 70
     1
102
RTVSPost2010Prop46
 90
       50
102
RTVSPost2010PropOp46
 70
     1
102
RTVSPost2010Prop47
 90
       50
102
RTVSPost2010PropOp47
 70
     1
102
RTVSPost2010Prop48
 90
       50
102
RTVSPost2010PropOp48
 70
     1
102
RTVSPost2010Prop49
280
     0
102
RTVSPost2010PropOp49
 70
     1
102
RTVSPost2010Prop50
 90
       50
102
RTVSPost2010PropOp50
 70
     1
102
RTVSPost2010Prop51ColorIndex
 90
      256
102
RTVSPost2010Prop51ColorRGB
 90
-16777216
102
RTVSPost2010PropOp51
 70
     0
102
RTVSPost2010Prop52
140
1.0
102
RTVSPost2010PropOp52
 70
     0
102
RTVSPost2010Prop53
 90
        2
102
RTVSPost2010PropOp53
 70
     1
102
RTVSPost2010Prop54
  1
strokes_ogs.tif
102
RTVSPost2010PropOp54
 70
     1
102
RTVSPost2010Prop55
280
     0
102
RTVSPost2010PropOp55
 70
     1
102
RTVSPost2010Prop56
140
1.0
102
RTVSPost2010PropOp56
 70
     1
102
RTVSPost2010Prop57
140
1.0
102
RTVSPost2010PropOp57
 70
     1
102
RTVSPropertyOp0
 70
     1
102
RTVSPropertyOp1
 70
     1
102
RTVSPropertyOp2
 70
     1
102
RTVSPropertyOp3
 70
     1
102
RTVSPropertyOp4
 70
     1
102
RTVSPropertyOp5
 70
     1
102
RTVSPropertyOp6
 70
     1
102
RTVSPropertyOp7
 70
     1
102
RTVSPropertyOp8
 70
     1
102
RTVSPropertyOp9
 70
     1
102
RTVSPropertyOp10
 70
     1
102
RTVSPropertyOp11
 70
     1
102
RTVSPropertyOp12
 70
     1
102
RTVSPropertyOp13
 70
     1
102
RTVSPropertyOp14
 70
     1
102
RTVSPropertyOp15
 70
     1
102
RTVSPropertyOp16
 70
     1
102
RTVSPropertyOp17
 70
     1
102
RTVSPropertyOp18
 70
     1
102
RTVSPropertyOp19
 70
     1
102
RTVSPropertyOp20
 70
     1
102
RTVSPropertyOp21
 70
     1
102
RTVSPropertyOp22
 70
     1
102
RTVSPropertyOp23
 70
     1
102
RTVSPropertyOp24
 70
     1
102
RTVSPropertyOp25
 70
     1
102
RTVSPropertyOp26
 70
     1
102
RTVSPropertyOp27
 70
     1
102
RTVSPropertyOp28
 70
     1
102
RTVSPropertyOp29
 70
     1
102
RTVSPropertyOp30
 70
     1
102
RTVSPropertyOp31
 70
     1
102
RTVSPropertyOp32
 70
     1
102
RTVSPropertyOp33
 70
     1
102
RTVSPropertyOp34
 70
     1
102
RTVSPropertyOp35
 70
     1
102
RTVSPropertyOp36
 70
     1
102
RTVSPropertyOp37
 70
     1
102
RTVSPropertyOp38
 70
     1
102
RTVSPropertyOp39
 70
     1
102
RTVSPropertyOp40
 70
     1
102
RTVSPropertyOp41
 70
     1
102
RTVSPropertyOp42
 70
     1
102
RTVSPropertyOp43
 70
     1
102
RTVSPropertyOp44
 70
     1
102
RTVSPropertyOp45
 70
     1
102
RTVSPropertyOp46
 70
     1
102
RTVSPropertyOp47
 70
     1
102
RTVSPropertyOp48
 70
     1
102
RTVSPropertyOp49
 70
     1
102
RTVSPropertyOp50
 70
     1
102
RTVSPropertyOp51
 70
     0
102
RTVSPropertyOp52
 70
     0
102
RTVSPropertyOp53
 70
     1
102
RTVSPropertyOp54
 70
     1
102
RTVSPropertyOp55
 70
     1
102
RTVSPropertyOp56
 70
     1
102
RTVSPropertyOp57
 70
     1
102
RTVSPropertyOp58
 70
     1
102
RTVSPropertyOp59
 70
     1
102
RTVSPropertyOp60
 70
     1
102
RTVSPropertyOp61
 70
     1
102
RTVSPropertyOp62
 70
     1
  0
XRECORD
  5
39DF
102
{ACAD_REACTORS
330
39DE
102
}
330
39DE
100
AcDbXrecord
280
     1
102
RTVSPost2010Prop28
280
     0
102
RTVSPost2010PropOp28
 70
     1
102
RTVSPost2010Prop29
280
     1
102
RTVSPost2010PropOp29
 70
     1
102
RTVSPost2010Prop30
280
     1
102
RTVSPost2010PropOp30
 70
     1
102
RTVSPost2010Prop31
280
     0
102
RTVSPost2010PropOp31
 70
     1
102
RTVSPost2010Prop32
280
     0
102
RTVSPost2010PropOp32
 70
     1
102
RTVSPost2010Prop33
280
     0
102
RTVSPost2010PropOp33
 70
     1
102
RTVSPost2010Prop34
280
     0
102
RTVSPost2010PropOp34
 70
     1
102
RTVSPost2010Prop35
280
     0
102
RTVSPost2010PropOp35
 70
     1
102
RTVSPost2010Prop36
280
     0
102
RTVSPost2010PropOp36
 70
     1
102
RTVSPost2010Prop37
 90
       50
102
RTVSPost2010PropOp37
 70
     1
102
RTVSPost2010Prop38
140
0.0
102
RTVSPost2010PropOp38
 70
     1
102
RTVSPost2010Prop39
140
1.0
102
RTVSPost2010PropOp39
 70
     1
102
RTVSPost2010Prop40
 90
        0
102
RTVSPost2010PropOp40
 70
     1
102
RTVSPost2010Prop41ColorIndex
 90
       18
102
RTVSPost2010Prop41ColorRGB
 90
        0
102
RTVSPost2010PropOp41
 70
     1
102
RTVSPost2010Prop42
 90
       50
102
RTVSPost2010PropOp42
 70
     1
102
RTVSPost2010Prop43
 90
        3
102
RTVSPost2010PropOp43
 70
     1
102
RTVSPost2010Prop44ColorIndex
 90
        5
102
RTVSPost2010Prop44ColorRGB
 90
      255
102
RTVSPost2010PropOp44
 70
     1
102
RTVSPost2010Prop45
280
     0
102
RTVSPost2010PropOp45
 70
     1
102
RTVSPost2010Prop46
 90
       50
102
RTVSPost2010PropOp46
 70
     1
102
RTVSPost2010Prop47
 90
       50
102
RTVSPost2010PropOp47
 70
     1
102
RTVSPost2010Prop48
 90
       50
102
RTVSPost2010PropOp48
 70
     1
102
RTVSPost2010Prop49
280
     0
102
RTVSPost2010PropOp49
 70
     1
102
RTVSPost2010Prop50
 90
       50
102
RTVSPost2010PropOp50
 70
     1
102
RTVSPost2010Prop51ColorIndex
 90
      256
102
RTVSPost2010Prop51ColorRGB
 90
-16777216
102
RTVSPost2010PropOp51
 70
     0
102
RTVSPost2010Prop52
140
1.0
102
RTVSPost2010PropOp52
 70
     0
102
RTVSPost2010Prop53
 90
        2
102
RTVSPost2010PropOp53
 70
     1
102
RTVSPost2010Prop54
  1
strokes_ogs.tif
102
RTVSPost2010PropOp54
 70
     1
102
RTVSPost2010Prop55
280
     0
102
RTVSPost2010PropOp55
 70
     1
102
RTVSPost2010Prop56
140
1.0
102
RTVSPost2010PropOp56
 70
     1
102
RTVSPost2010Prop57
140
1.0
102
RTVSPost2010PropOp57
 70
     1
102
RTVSPropertyOp0
 70
     1
102
RTVSPropertyOp1
 70
     1
102
RTVSPropertyOp2
 70
     1
102
RTVSPropertyOp3
 70
     1
102
RTVSPropertyOp4
 70
     1
102
RTVSPropertyOp5
 70
     1
102
RTVSPropertyOp6
 70
     1
102
RTVSPropertyOp7
 70
     1
102
RTVSPropertyOp8
 70
     1
102
RTVSPropertyOp9
 70
     1
102
RTVSPropertyOp10
 70
     1
102
RTVSPropertyOp11
 70
     1
102
RTVSPropertyOp12
 70
     1
102
RTVSPropertyOp13
 70
     1
102
RTVSPropertyOp14
 70
     1
102
RTVSPropertyOp15
 70
     1
102
RTVSPropertyOp16
 70
     1
102
RTVSPropertyOp17
 70
     1
102
RTVSPropertyOp18
 70
     1
102
RTVSPropertyOp19
 70
     1
102
RTVSPropertyOp20
 70
     1
102
RTVSPropertyOp21
 70
     1
102
RTVSPropertyOp22
 70
     1
102
RTVSPropertyOp23
 70
     1
102
RTVSPropertyOp24
 70
     1
102
RTVSPropertyOp25
 70
     1
102
RTVSPropertyOp26
 70
     1
102
RTVSPropertyOp27
 70
     1
102
RTVSPropertyOp28
 70
     1
102
RTVSPropertyOp29
 70
     1
102
RTVSPropertyOp30
 70
     1
102
RTVSPropertyOp31
 70
     1
102
RTVSPropertyOp32
 70
     1
102
RTVSPropertyOp33
 70
     1
102
RTVSPropertyOp34
 70
     1
102
RTVSPropertyOp35
 70
     1
102
RTVSPropertyOp36
 70
     1
102
RTVSPropertyOp37
 70
     1
102
RTVSPropertyOp38
 70
     1
102
RTVSPropertyOp39
 70
     1
102
RTVSPropertyOp40
 70
     1
102
RTVSPropertyOp41
 70
     1
102
RTVSPropertyOp42
 70
     1
102
RTVSPropertyOp43
 70
     1
102
RTVSPropertyOp44
 70
     1
102
RTVSPropertyOp45
 70
     1
102
RTVSPropertyOp46
 70
     1
102
RTVSPropertyOp47
 70
     1
102
RTVSPropertyOp48
 70
     1
102
RTVSPropertyOp49
 70
     1
102
RTVSPropertyOp50
 70
     1
102
RTVSPropertyOp51
 70
     0
102
RTVSPropertyOp52
 70
     0
102
RTVSPropertyOp53
 70
     1
102
RTVSPropertyOp54
 70
     1
102
RTVSPropertyOp55
 70
     1
102
RTVSPropertyOp56
 70
     1
102
RTVSPropertyOp57
 70
     1
102
RTVSPropertyOp58
 70
     1
102
RTVSPropertyOp59
 70
     1
102
RTVSPropertyOp60
 70
     1
102
RTVSPropertyOp61
 70
     1
102
RTVSPropertyOp62
 70
     1
  0
XRECORD
  5
39ED
102
{ACAD_REACTORS
330
39EC
102
}
330
39EC
100
AcDbXrecord
280
     1
102
RTVSPost2010Prop28
280
     0
102
RTVSPost2010PropOp28
 70
     1
102
RTVSPost2010Prop29
280
     1
102
RTVSPost2010PropOp29
 70
     1
102
RTVSPost2010Prop30
280
     1
102
RTVSPost2010PropOp30
 70
     1
102
RTVSPost2010Prop31
280
     0
102
RTVSPost2010PropOp31
 70
     1
102
RTVSPost2010Prop32
280
     0
102
RTVSPost2010PropOp32
 70
     1
102
RTVSPost2010Prop33
280
     0
102
RTVSPost2010PropOp33
 70
     1
102
RTVSPost2010Prop34
280
     0
102
RTVSPost2010PropOp34
 70
     1
102
RTVSPost2010Prop35
280
     0
102
RTVSPost2010PropOp35
 70
     1
102
RTVSPost2010Prop36
280
     0
102
RTVSPost2010PropOp36
 70
     1
102
RTVSPost2010Prop37
 90
       50
102
RTVSPost2010PropOp37
 70
     1
102
RTVSPost2010Prop38
140
0.0
102
RTVSPost2010PropOp38
 70
     1
102
RTVSPost2010Prop39
140
1.0
102
RTVSPost2010PropOp39
 70
     1
102
RTVSPost2010Prop40
 90
        0
102
RTVSPost2010PropOp40
 70
     1
102
RTVSPost2010Prop41ColorIndex
 90
       18
102
RTVSPost2010Prop41ColorRGB
 90
        0
102
RTVSPost2010PropOp41
 70
     1
102
RTVSPost2010Prop42
 90
       50
102
RTVSPost2010PropOp42
 70
     1
102
RTVSPost2010Prop43
 90
        3
102
RTVSPost2010PropOp43
 70
     1
102
RTVSPost2010Prop44ColorIndex
 90
        5
102
RTVSPost2010Prop44ColorRGB
 90
      255
102
RTVSPost2010PropOp44
 70
     1
102
RTVSPost2010Prop45
280
     0
102
RTVSPost2010PropOp45
 70
     1
102
RTVSPost2010Prop46
 90
       50
102
RTVSPost2010PropOp46
 70
     1
102
RTVSPost2010Prop47
 90
       50
102
RTVSPost2010PropOp47
 70
     1
102
RTVSPost2010Prop48
 90
       50
102
RTVSPost2010PropOp48
 70
     1
102
RTVSPost2010Prop49
280
     0
102
RTVSPost2010PropOp49
 70
     1
102
RTVSPost2010Prop50
 90
       50
102
RTVSPost2010PropOp50
 70
     1
102
RTVSPost2010Prop51ColorIndex
 90
      256
102
RTVSPost2010Prop51ColorRGB
 90
-16777216
102
RTVSPost2010PropOp51
 70
     0
102
RTVSPost2010Prop52
140
1.0
102
RTVSPost2010PropOp52
 70
     0
102
RTVSPost2010Prop53
 90
        2
102
RTVSPost2010PropOp53
 70
     1
102
RTVSPost2010Prop54
  1
strokes_ogs.tif
102
RTVSPost2010PropOp54
 70
     1
102
RTVSPost2010Prop55
280
     0
102
RTVSPost2010PropOp55
 70
     1
102
RTVSPost2010Prop56
140
1.0
102
RTVSPost2010PropOp56
 70
     1
102
RTVSPost2010Prop57
140
1.0
102
RTVSPost2010PropOp57
 70
     1
102
RTVSPropertyOp0
 70
     1
102
RTVSPropertyOp1
 70
     1
102
RTVSPropertyOp2
 70
     1
102
RTVSPropertyOp3
 70
     1
102
RTVSPropertyOp4
 70
     1
102
RTVSPropertyOp5
 70
     1
102
RTVSPropertyOp6
 70
     1
102
RTVSPropertyOp7
 70
     1
102
RTVSPropertyOp8
 70
     1
102
RTVSPropertyOp9
 70
     1
102
RTVSPropertyOp10
 70
     1
102
RTVSPropertyOp11
 70
     1
102
RTVSPropertyOp12
 70
     1
102
RTVSPropertyOp13
 70
     1
102
RTVSPropertyOp14
 70
     1
102
RTVSPropertyOp15
 70
     1
102
RTVSPropertyOp16
 70
     1
102
RTVSPropertyOp17
 70
     1
102
RTVSPropertyOp18
 70
     1
102
RTVSPropertyOp19
 70
     1
102
RTVSPropertyOp20
 70
     1
102
RTVSPropertyOp21
 70
     1
102
RTVSPropertyOp22
 70
     1
102
RTVSPropertyOp23
 70
     1
102
RTVSPropertyOp24
 70
     1
102
RTVSPropertyOp25
 70
     1
102
RTVSPropertyOp26
 70
     1
102
RTVSPropertyOp27
 70
     1
102
RTVSPropertyOp28
 70
     1
102
RTVSPropertyOp29
 70
     1
102
RTVSPropertyOp30
 70
     1
102
RTVSPropertyOp31
 70
     1
102
RTVSPropertyOp32
 70
     1
102
RTVSPropertyOp33
 70
     1
102
RTVSPropertyOp34
 70
     1
102
RTVSPropertyOp35
 70
     1
102
RTVSPropertyOp36
 70
     1
102
RTVSPropertyOp37
 70
     1
102
RTVSPropertyOp38
 70
     1
102
RTVSPropertyOp39
 70
     1
102
RTVSPropertyOp40
 70
     1
102
RTVSPropertyOp41
 70
     1
102
RTVSPropertyOp42
 70
     1
102
RTVSPropertyOp43
 70
     1
102
RTVSPropertyOp44
 70
     1
102
RTVSPropertyOp45
 70
     1
102
RTVSPropertyOp46
 70
     1
102
RTVSPropertyOp47
 70
     1
102
RTVSPropertyOp48
 70
     1
102
RTVSPropertyOp49
 70
     1
102
RTVSPropertyOp50
 70
     1
102
RTVSPropertyOp51
 70
     0
102
RTVSPropertyOp52
 70
     0
102
RTVSPropertyOp53
 70
     1
102
RTVSPropertyOp54
 70
     1
102
RTVSPropertyOp55
 70
     1
102
RTVSPropertyOp56
 70
     1
102
RTVSPropertyOp57
 70
     1
102
RTVSPropertyOp58
 70
     1
102
RTVSPropertyOp59
 70
     1
102
RTVSPropertyOp60
 70
     1
102
RTVSPropertyOp61
 70
     1
102
RTVSPropertyOp62
 70
     1
  0
XRECORD
  5
39F5
102
{ACAD_REACTORS
330
39F4
102
}
330
39F4
100
AcDbXrecord
280
     1
102
RTVSPost2010Prop28
280
     0
102
RTVSPost2010PropOp28
 70
     1
102
RTVSPost2010Prop29
280
     1
102
RTVSPost2010PropOp29
 70
     1
102
RTVSPost2010Prop30
280
     1
102
RTVSPost2010PropOp30
 70
     1
102
RTVSPost2010Prop31
280
     0
102
RTVSPost2010PropOp31
 70
     1
102
RTVSPost2010Prop32
280
     0
102
RTVSPost2010PropOp32
 70
     1
102
RTVSPost2010Prop33
280
     0
102
RTVSPost2010PropOp33
 70
     1
102
RTVSPost2010Prop34
280
     0
102
RTVSPost2010PropOp34
 70
     1
102
RTVSPost2010Prop35
280
     0
102
RTVSPost2010PropOp35
 70
     1
102
RTVSPost2010Prop36
280
     0
102
RTVSPost2010PropOp36
 70
     1
102
RTVSPost2010Prop37
 90
       50
102
RTVSPost2010PropOp37
 70
     1
102
RTVSPost2010Prop38
140
0.0
102
RTVSPost2010PropOp38
 70
     1
102
RTVSPost2010Prop39
140
1.0
102
RTVSPost2010PropOp39
 70
     1
102
RTVSPost2010Prop40
 90
        0
102
RTVSPost2010PropOp40
 70
     1
102
RTVSPost2010Prop41ColorIndex
 90
       18
102
RTVSPost2010Prop41ColorRGB
 90
        0
102
RTVSPost2010PropOp41
 70
     1
102
RTVSPost2010Prop42
 90
       50
102
RTVSPost2010PropOp42
 70
     1
102
RTVSPost2010Prop43
 90
        3
102
RTVSPost2010PropOp43
 70
     1
102
RTVSPost2010Prop44ColorIndex
 90
        5
102
RTVSPost2010Prop44ColorRGB
 90
      255
102
RTVSPost2010PropOp44
 70
     1
102
RTVSPost2010Prop45
280
     0
102
RTVSPost2010PropOp45
 70
     1
102
RTVSPost2010Prop46
 90
       50
102
RTVSPost2010PropOp46
 70
     1
102
RTVSPost2010Prop47
 90
       50
102
RTVSPost2010PropOp47
 70
     1
102
RTVSPost2010Prop48
 90
       50
102
RTVSPost2010PropOp48
 70
     1
102
RTVSPost2010Prop49
280
     0
102
RTVSPost2010PropOp49
 70
     1
102
RTVSPost2010Prop50
 90
       50
102
RTVSPost2010PropOp50
 70
     1
102
RTVSPost2010Prop51ColorIndex
 90
      256
102
RTVSPost2010Prop51ColorRGB
 90
-16777216
102
RTVSPost2010PropOp51
 70
     0
102
RTVSPost2010Prop52
140
1.0
102
RTVSPost2010PropOp52
 70
     0
102
RTVSPost2010Prop53
 90
        2
102
RTVSPost2010PropOp53
 70
     1
102
RTVSPost2010Prop54
  1
strokes_ogs.tif
102
RTVSPost2010PropOp54
 70
     1
102
RTVSPost2010Prop55
280
     0
102
RTVSPost2010PropOp55
 70
     1
102
RTVSPost2010Prop56
140
1.0
102
RTVSPost2010PropOp56
 70
     1
102
RTVSPost2010Prop57
140
1.0
102
RTVSPost2010PropOp57
 70
     1
102
RTVSPropertyOp0
 70
     1
102
RTVSPropertyOp1
 70
     1
102
RTVSPropertyOp2
 70
     1
102
RTVSPropertyOp3
 70
     1
102
RTVSPropertyOp4
 70
     1
102
RTVSPropertyOp5
 70
     1
102
RTVSPropertyOp6
 70
     1
102
RTVSPropertyOp7
 70
     1
102
RTVSPropertyOp8
 70
     1
102
RTVSPropertyOp9
 70
     1
102
RTVSPropertyOp10
 70
     1
102
RTVSPropertyOp11
 70
     1
102
RTVSPropertyOp12
 70
     1
102
RTVSPropertyOp13
 70
     1
102
RTVSPropertyOp14
 70
     1
102
RTVSPropertyOp15
 70
     1
102
RTVSPropertyOp16
 70
     1
102
RTVSPropertyOp17
 70
     1
102
RTVSPropertyOp18
 70
     1
102
RTVSPropertyOp19
 70
     1
102
RTVSPropertyOp20
 70
     1
102
RTVSPropertyOp21
 70
     1
102
RTVSPropertyOp22
 70
     1
102
RTVSPropertyOp23
 70
     1
102
RTVSPropertyOp24
 70
     1
102
RTVSPropertyOp25
 70
     1
102
RTVSPropertyOp26
 70
     1
102
RTVSPropertyOp27
 70
     1
102
RTVSPropertyOp28
 70
     1
102
RTVSPropertyOp29
 70
     1
102
RTVSPropertyOp30
 70
     1
102
RTVSPropertyOp31
 70
     1
102
RTVSPropertyOp32
 70
     1
102
RTVSPropertyOp33
 70
     1
102
RTVSPropertyOp34
 70
     1
102
RTVSPropertyOp35
 70
     1
102
RTVSPropertyOp36
 70
     1
102
RTVSPropertyOp37
 70
     1
102
RTVSPropertyOp38
 70
     1
102
RTVSPropertyOp39
 70
     1
102
RTVSPropertyOp40
 70
     1
102
RTVSPropertyOp41
 70
     1
102
RTVSPropertyOp42
 70
     1
102
RTVSPropertyOp43
 70
     1
102
RTVSPropertyOp44
 70
     1
102
RTVSPropertyOp45
 70
     1
102
RTVSPropertyOp46
 70
     1
102
RTVSPropertyOp47
 70
     1
102
RTVSPropertyOp48
 70
     1
102
RTVSPropertyOp49
 70
     1
102
RTVSPropertyOp50
 70
     1
102
RTVSPropertyOp51
 70
     0
102
RTVSPropertyOp52
 70
     0
102
RTVSPropertyOp53
 70
     1
102
RTVSPropertyOp54
 70
     1
102
RTVSPropertyOp55
 70
     1
102
RTVSPropertyOp56
 70
     1
102
RTVSPropertyOp57
 70
     1
102
RTVSPropertyOp58
 70
     1
102
RTVSPropertyOp59
 70
     1
102
RTVSPropertyOp60
 70
     1
102
RTVSPropertyOp61
 70
     1
102
RTVSPropertyOp62
 70
     1
  0
XRECORD
  5
39E7
102
{ACAD_REACTORS
330
39E6
102
}
330
39E6
100
AcDbXrecord
280
     1
102
RTVSPost2010Prop28
280
     0
102
RTVSPost2010PropOp28
 70
     1
102
RTVSPost2010Prop29
280
     1
102
RTVSPost2010PropOp29
 70
     1
102
RTVSPost2010Prop30
280
     1
102
RTVSPost2010PropOp30
 70
     1
102
RTVSPost2010Prop31
280
     0
102
RTVSPost2010PropOp31
 70
     1
102
RTVSPost2010Prop32
280
     0
102
RTVSPost2010PropOp32
 70
     1
102
RTVSPost2010Prop33
280
     0
102
RTVSPost2010PropOp33
 70
     1
102
RTVSPost2010Prop34
280
     0
102
RTVSPost2010PropOp34
 70
     1
102
RTVSPost2010Prop35
280
     0
102
RTVSPost2010PropOp35
 70
     1
102
RTVSPost2010Prop36
280
     0
102
RTVSPost2010PropOp36
 70
     1
102
RTVSPost2010Prop37
 90
       50
102
RTVSPost2010PropOp37
 70
     1
102
RTVSPost2010Prop38
140
0.0
102
RTVSPost2010PropOp38
 70
     1
102
RTVSPost2010Prop39
140
1.0
102
RTVSPost2010PropOp39
 70
     1
102
RTVSPost2010Prop40
 90
        0
102
RTVSPost2010PropOp40
 70
     1
102
RTVSPost2010Prop41ColorIndex
 90
       18
102
RTVSPost2010Prop41ColorRGB
 90
        0
102
RTVSPost2010PropOp41
 70
     1
102
RTVSPost2010Prop42
 90
       50
102
RTVSPost2010PropOp42
 70
     1
102
RTVSPost2010Prop43
 90
        3
102
RTVSPost2010PropOp43
 70
     1
102
RTVSPost2010Prop44ColorIndex
 90
        5
102
RTVSPost2010Prop44ColorRGB
 90
      255
102
RTVSPost2010PropOp44
 70
     1
102
RTVSPost2010Prop45
280
     0
102
RTVSPost2010PropOp45
 70
     1
102
RTVSPost2010Prop46
 90
       50
102
RTVSPost2010PropOp46
 70
     1
102
RTVSPost2010Prop47
 90
       50
102
RTVSPost2010PropOp47
 70
     1
102
RTVSPost2010Prop48
 90
       50
102
RTVSPost2010PropOp48
 70
     1
102
RTVSPost2010Prop49
280
     0
102
RTVSPost2010PropOp49
 70
     1
102
RTVSPost2010Prop50
 90
       50
102
RTVSPost2010PropOp50
 70
     1
102
RTVSPost2010Prop51ColorIndex
 90
      256
102
RTVSPost2010Prop51ColorRGB
 90
-16777216
102
RTVSPost2010PropOp51
 70
     0
102
RTVSPost2010Prop52
140
1.0
102
RTVSPost2010PropOp52
 70
     0
102
RTVSPost2010Prop53
 90
        2
102
RTVSPost2010PropOp53
 70
     1
102
RTVSPost2010Prop54
  1
strokes_ogs.tif
102
RTVSPost2010PropOp54
 70
     1
102
RTVSPost2010Prop55
280
     0
102
RTVSPost2010PropOp55
 70
     1
102
RTVSPost2010Prop56
140
1.0
102
RTVSPost2010PropOp56
 70
     1
102
RTVSPost2010Prop57
140
1.0
102
RTVSPost2010PropOp57
 70
     1
102
RTVSPropertyOp0
 70
     1
102
RTVSPropertyOp1
 70
     1
102
RTVSPropertyOp2
 70
     1
102
RTVSPropertyOp3
 70
     1
102
RTVSPropertyOp4
 70
     1
102
RTVSPropertyOp5
 70
     1
102
RTVSPropertyOp6
 70
     1
102
RTVSPropertyOp7
 70
     1
102
RTVSPropertyOp8
 70
     1
102
RTVSPropertyOp9
 70
     1
102
RTVSPropertyOp10
 70
     1
102
RTVSPropertyOp11
 70
     1
102
RTVSPropertyOp12
 70
     1
102
RTVSPropertyOp13
 70
     1
102
RTVSPropertyOp14
 70
     1
102
RTVSPropertyOp15
 70
     1
102
RTVSPropertyOp16
 70
     1
102
RTVSPropertyOp17
 70
     1
102
RTVSPropertyOp18
 70
     1
102
RTVSPropertyOp19
 70
     1
102
RTVSPropertyOp20
 70
     1
102
RTVSPropertyOp21
 70
     1
102
RTVSPropertyOp22
 70
     1
102
RTVSPropertyOp23
 70
     1
102
RTVSPropertyOp24
 70
     1
102
RTVSPropertyOp25
 70
     1
102
RTVSPropertyOp26
 70
     1
102
RTVSPropertyOp27
 70
     1
102
RTVSPropertyOp28
 70
     1
102
RTVSPropertyOp29
 70
     1
102
RTVSPropertyOp30
 70
     1
102
RTVSPropertyOp31
 70
     1
102
RTVSPropertyOp32
 70
     1
102
RTVSPropertyOp33
 70
     1
102
RTVSPropertyOp34
 70
     1
102
RTVSPropertyOp35
 70
     1
102
RTVSPropertyOp36
 70
     1
102
RTVSPropertyOp37
 70
     1
102
RTVSPropertyOp38
 70
     1
102
RTVSPropertyOp39
 70
     1
102
RTVSPropertyOp40
 70
     1
102
RTVSPropertyOp41
 70
     1
102
RTVSPropertyOp42
 70
     1
102
RTVSPropertyOp43
 70
     1
102
RTVSPropertyOp44
 70
     1
102
RTVSPropertyOp45
 70
     1
102
RTVSPropertyOp46
 70
     1
102
RTVSPropertyOp47
 70
     1
102
RTVSPropertyOp48
 70
     1
102
RTVSPropertyOp49
 70
     1
102
RTVSPropertyOp50
 70
     1
102
RTVSPropertyOp51
 70
     0
102
RTVSPropertyOp52
 70
     0
102
RTVSPropertyOp53
 70
     1
102
RTVSPropertyOp54
 70
     1
102
RTVSPropertyOp55
 70
     1
102
RTVSPropertyOp56
 70
     1
102
RTVSPropertyOp57
 70
     1
102
RTVSPropertyOp58
 70
     1
102
RTVSPropertyOp59
 70
     1
102
RTVSPropertyOp60
 70
     1
102
RTVSPropertyOp61
 70
     1
102
RTVSPropertyOp62
 70
     1
  0
XRECORD
  5
39EB
102
{ACAD_REACTORS
330
39EA
102
}
330
39EA
100
AcDbXrecord
280
     1
102
RTVSPost2010Prop28
280
     0
102
RTVSPost2010PropOp28
 70
     1
102
RTVSPost2010Prop29
280
     1
102
RTVSPost2010PropOp29
 70
     1
102
RTVSPost2010Prop30
280
     1
102
RTVSPost2010PropOp30
 70
     1
102
RTVSPost2010Prop31
280
     0
102
RTVSPost2010PropOp31
 70
     1
102
RTVSPost2010Prop32
280
     0
102
RTVSPost2010PropOp32
 70
     1
102
RTVSPost2010Prop33
280
     0
102
RTVSPost2010PropOp33
 70
     1
102
RTVSPost2010Prop34
280
     0
102
RTVSPost2010PropOp34
 70
     1
102
RTVSPost2010Prop35
280
     0
102
RTVSPost2010PropOp35
 70
     1
102
RTVSPost2010Prop36
280
     0
102
RTVSPost2010PropOp36
 70
     1
102
RTVSPost2010Prop37
 90
       50
102
RTVSPost2010PropOp37
 70
     1
102
RTVSPost2010Prop38
140
0.0
102
RTVSPost2010PropOp38
 70
     1
102
RTVSPost2010Prop39
140
1.0
102
RTVSPost2010PropOp39
 70
     1
102
RTVSPost2010Prop40
 90
        0
102
RTVSPost2010PropOp40
 70
     1
102
RTVSPost2010Prop41ColorIndex
 90
       18
102
RTVSPost2010Prop41ColorRGB
 90
        0
102
RTVSPost2010PropOp41
 70
     1
102
RTVSPost2010Prop42
 90
       50
102
RTVSPost2010PropOp42
 70
     1
102
RTVSPost2010Prop43
 90
        3
102
RTVSPost2010PropOp43
 70
     1
102
RTVSPost2010Prop44ColorIndex
 90
        5
102
RTVSPost2010Prop44ColorRGB
 90
      255
102
RTVSPost2010PropOp44
 70
     1
102
RTVSPost2010Prop45
280
     0
102
RTVSPost2010PropOp45
 70
     1
102
RTVSPost2010Prop46
 90
       50
102
RTVSPost2010PropOp46
 70
     1
102
RTVSPost2010Prop47
 90
       50
102
RTVSPost2010PropOp47
 70
     1
102
RTVSPost2010Prop48
 90
       50
102
RTVSPost2010PropOp48
 70
     1
102
RTVSPost2010Prop49
280
     0
102
RTVSPost2010PropOp49
 70
     1
102
RTVSPost2010Prop50
 90
       50
102
RTVSPost2010PropOp50
 70
     1
102
RTVSPost2010Prop51ColorIndex
 90
      256
102
RTVSPost2010Prop51ColorRGB
 90
-16777216
102
RTVSPost2010PropOp51
 70
     0
102
RTVSPost2010Prop52
140
1.0
102
RTVSPost2010PropOp52
 70
     0
102
RTVSPost2010Prop53
 90
        2
102
RTVSPost2010PropOp53
 70
     1
102
RTVSPost2010Prop54
  1
strokes_ogs.tif
102
RTVSPost2010PropOp54
 70
     1
102
RTVSPost2010Prop55
280
     0
102
RTVSPost2010PropOp55
 70
     1
102
RTVSPost2010Prop56
140
1.0
102
RTVSPost2010PropOp56
 70
     1
102
RTVSPost2010Prop57
140
1.0
102
RTVSPost2010PropOp57
 70
     1
102
RTVSPropertyOp0
 70
     1
102
RTVSPropertyOp1
 70
     1
102
RTVSPropertyOp2
 70
     1
102
RTVSPropertyOp3
 70
     1
102
RTVSPropertyOp4
 70
     1
102
RTVSPropertyOp5
 70
     1
102
RTVSPropertyOp6
 70
     1
102
RTVSPropertyOp7
 70
     1
102
RTVSPropertyOp8
 70
     1
102
RTVSPropertyOp9
 70
     1
102
RTVSPropertyOp10
 70
     1
102
RTVSPropertyOp11
 70
     1
102
RTVSPropertyOp12
 70
     1
102
RTVSPropertyOp13
 70
     1
102
RTVSPropertyOp14
 70
     1
102
RTVSPropertyOp15
 70
     1
102
RTVSPropertyOp16
 70
     1
102
RTVSPropertyOp17
 70
     1
102
RTVSPropertyOp18
 70
     1
102
RTVSPropertyOp19
 70
     1
102
RTVSPropertyOp20
 70
     1
102
RTVSPropertyOp21
 70
     1
102
RTVSPropertyOp22
 70
     1
102
RTVSPropertyOp23
 70
     1
102
RTVSPropertyOp24
 70
     1
102
RTVSPropertyOp25
 70
     1
102
RTVSPropertyOp26
 70
     1
102
RTVSPropertyOp27
 70
     1
102
RTVSPropertyOp28
 70
     1
102
RTVSPropertyOp29
 70
     1
102
RTVSPropertyOp30
 70
     1
102
RTVSPropertyOp31
 70
     1
102
RTVSPropertyOp32
 70
     1
102
RTVSPropertyOp33
 70
     1
102
RTVSPropertyOp34
 70
     1
102
RTVSPropertyOp35
 70
     1
102
RTVSPropertyOp36
 70
     1
102
RTVSPropertyOp37
 70
     1
102
RTVSPropertyOp38
 70
     1
102
RTVSPropertyOp39
 70
     1
102
RTVSPropertyOp40
 70
     1
102
RTVSPropertyOp41
 70
     1
102
RTVSPropertyOp42
 70
     1
102
RTVSPropertyOp43
 70
     1
102
RTVSPropertyOp44
 70
     1
102
RTVSPropertyOp45
 70
     1
102
RTVSPropertyOp46
 70
     1
102
RTVSPropertyOp47
 70
     1
102
RTVSPropertyOp48
 70
     1
102
RTVSPropertyOp49
 70
     1
102
RTVSPropertyOp50
 70
     1
102
RTVSPropertyOp51
 70
     0
102
RTVSPropertyOp52
 70
     0
102
RTVSPropertyOp53
 70
     1
102
RTVSPropertyOp54
 70
     1
102
RTVSPropertyOp55
 70
     1
102
RTVSPropertyOp56
 70
     1
102
RTVSPropertyOp57
 70
     1
102
RTVSPropertyOp58
 70
     1
102
RTVSPropertyOp59
 70
     1
102
RTVSPropertyOp60
 70
     1
102
RTVSPropertyOp61
 70
     1
102
RTVSPropertyOp62
 70
     1
  0
XRECORD
  5
39FD
102
{ACAD_REACTORS
330
39FC
102
}
330
39FC
100
AcDbXrecord
280
     1
102
RTVSPost2010Prop28
280
     0
102
RTVSPost2010PropOp28
 70
     1
102
RTVSPost2010Prop29
280
     1
102
RTVSPost2010PropOp29
 70
     1
102
RTVSPost2010Prop30
280
     1
102
RTVSPost2010PropOp30
 70
     1
102
RTVSPost2010Prop31
280
     0
102
RTVSPost2010PropOp31
 70
     1
102
RTVSPost2010Prop32
280
     0
102
RTVSPost2010PropOp32
 70
     1
102
RTVSPost2010Prop33
280
     0
102
RTVSPost2010PropOp33
 70
     1
102
RTVSPost2010Prop34
280
     0
102
RTVSPost2010PropOp34
 70
     1
102
RTVSPost2010Prop35
280
     0
102
RTVSPost2010PropOp35
 70
     1
102
RTVSPost2010Prop36
280
     0
102
RTVSPost2010PropOp36
 70
     1
102
RTVSPost2010Prop37
 90
       50
102
RTVSPost2010PropOp37
 70
     1
102
RTVSPost2010Prop38
140
0.0
102
RTVSPost2010PropOp38
 70
     1
102
RTVSPost2010Prop39
140
1.0
102
RTVSPost2010PropOp39
 70
     1
102
RTVSPost2010Prop40
 90
        0
102
RTVSPost2010PropOp40
 70
     1
102
RTVSPost2010Prop41ColorIndex
 90
       18
102
RTVSPost2010Prop41ColorRGB
 90
        0
102
RTVSPost2010PropOp41
 70
     1
102
RTVSPost2010Prop42
 90
       50
102
RTVSPost2010PropOp42
 70
     1
102
RTVSPost2010Prop43
 90
        3
102
RTVSPost2010PropOp43
 70
     1
102
RTVSPost2010Prop44ColorIndex
 90
        5
102
RTVSPost2010Prop44ColorRGB
 90
      255
102
RTVSPost2010PropOp44
 70
     1
102
RTVSPost2010Prop45
280
     0
102
RTVSPost2010PropOp45
 70
     1
102
RTVSPost2010Prop46
 90
       50
102
RTVSPost2010PropOp46
 70
     1
102
RTVSPost2010Prop47
 90
       50
102
RTVSPost2010PropOp47
 70
     1
102
RTVSPost2010Prop48
 90
       50
102
RTVSPost2010PropOp48
 70
     1
102
RTVSPost2010Prop49
280
     0
102
RTVSPost2010PropOp49
 70
     1
102
RTVSPost2010Prop50
 90
       50
102
RTVSPost2010PropOp50
 70
     1
102
RTVSPost2010Prop51ColorIndex
 90
      256
102
RTVSPost2010Prop51ColorRGB
 90
-16777216
102
RTVSPost2010PropOp51
 70
     0
102
RTVSPost2010Prop52
140
1.0
102
RTVSPost2010PropOp52
 70
     0
102
RTVSPost2010Prop53
 90
        2
102
RTVSPost2010PropOp53
 70
     1
102
RTVSPost2010Prop54
  1
strokes_ogs.tif
102
RTVSPost2010PropOp54
 70
     1
102
RTVSPost2010Prop55
280
     0
102
RTVSPost2010PropOp55
 70
     1
102
RTVSPost2010Prop56
140
1.0
102
RTVSPost2010PropOp56
 70
     1
102
RTVSPost2010Prop57
140
1.0
102
RTVSPost2010PropOp57
 70
     1
102
RTVSPropertyOp0
 70
     0
102
RTVSPropertyOp1
 70
     0
102
RTVSPropertyOp2
 70
     0
102
RTVSPropertyOp3
 70
     0
102
RTVSPropertyOp4
 70
     0
102
RTVSPropertyOp5
 70
     0
102
RTVSPropertyOp6
 70
     0
102
RTVSPropertyOp7
 70
     0
102
RTVSPropertyOp8
 70
     0
102
RTVSPropertyOp9
 70
     0
102
RTVSPropertyOp10
 70
     0
102
RTVSPropertyOp11
 70
     0
102
RTVSPropertyOp12
 70
     0
102
RTVSPropertyOp13
 70
     0
102
RTVSPropertyOp14
 70
     2
102
RTVSPropertyOp15
 70
     0
102
RTVSPropertyOp16
 70
     0
102
RTVSPropertyOp17
 70
     0
102
RTVSPropertyOp18
 70
     0
102
RTVSPropertyOp19
 70
     0
102
RTVSPropertyOp20
 70
     0
102
RTVSPropertyOp21
 70
     0
102
RTVSPropertyOp22
 70
     0
102
RTVSPropertyOp23
 70
     0
102
RTVSPropertyOp24
 70
     0
102
RTVSPropertyOp25
 70
     0
102
RTVSPropertyOp26
 70
     0
102
RTVSPropertyOp27
 70
     0
102
RTVSPropertyOp28
 70
     1
102
RTVSPropertyOp29
 70
     1
102
RTVSPropertyOp30
 70
     1
102
RTVSPropertyOp31
 70
     1
102
RTVSPropertyOp32
 70
     1
102
RTVSPropertyOp33
 70
     1
102
RTVSPropertyOp34
 70
     1
102
RTVSPropertyOp35
 70
     1
102
RTVSPropertyOp36
 70
     1
102
RTVSPropertyOp37
 70
     1
102
RTVSPropertyOp38
 70
     1
102
RTVSPropertyOp39
 70
     1
102
RTVSPropertyOp40
 70
     1
102
RTVSPropertyOp41
 70
     1
102
RTVSPropertyOp42
 70
     1
102
RTVSPropertyOp43
 70
     1
102
RTVSPropertyOp44
 70
     1
102
RTVSPropertyOp45
 70
     1
102
RTVSPropertyOp46
 70
     1
102
RTVSPropertyOp47
 70
     1
102
RTVSPropertyOp48
 70
     1
102
RTVSPropertyOp49
 70
     1
102
RTVSPropertyOp50
 70
     1
102
RTVSPropertyOp51
 70
     0
102
RTVSPropertyOp52
 70
     0
102
RTVSPropertyOp53
 70
     1
102
RTVSPropertyOp54
 70
     1
102
RTVSPropertyOp55
 70
     1
102
RTVSPropertyOp56
 70
     1
102
RTVSPropertyOp57
 70
     1
102
RTVSPropertyOp58
 70
     1
102
RTVSPropertyOp59
 70
     1
102
RTVSPropertyOp60
 70
     1
102
RTVSPropertyOp61
 70
     1
102
RTVSPropertyOp62
 70
     1
  0
XRECORD
  5
39F3
102
{ACAD_REACTORS
330
39F2
102
}
330
39F2
100
AcDbXrecord
280
     1
102
RTVSPost2010Prop28
280
     0
102
RTVSPost2010PropOp28
 70
     1
102
RTVSPost2010Prop29
280
     1
102
RTVSPost2010PropOp29
 70
     1
102
RTVSPost2010Prop30
280
     1
102
RTVSPost2010PropOp30
 70
     1
102
RTVSPost2010Prop31
280
     0
102
RTVSPost2010PropOp31
 70
     1
102
RTVSPost2010Prop32
280
     0
102
RTVSPost2010PropOp32
 70
     1
102
RTVSPost2010Prop33
280
     0
102
RTVSPost2010PropOp33
 70
     1
102
RTVSPost2010Prop34
280
     0
102
RTVSPost2010PropOp34
 70
     1
102
RTVSPost2010Prop35
280
     0
102
RTVSPost2010PropOp35
 70
     1
102
RTVSPost2010Prop36
280
     0
102
RTVSPost2010PropOp36
 70
     1
102
RTVSPost2010Prop37
 90
       50
102
RTVSPost2010PropOp37
 70
     1
102
RTVSPost2010Prop38
140
0.0
102
RTVSPost2010PropOp38
 70
     1
102
RTVSPost2010Prop39
140
1.0
102
RTVSPost2010PropOp39
 70
     1
102
RTVSPost2010Prop40
 90
        0
102
RTVSPost2010PropOp40
 70
     1
102
RTVSPost2010Prop41ColorIndex
 90
       18
102
RTVSPost2010Prop41ColorRGB
 90
        0
102
RTVSPost2010PropOp41
 70
     1
102
RTVSPost2010Prop42
 90
       50
102
RTVSPost2010PropOp42
 70
     1
102
RTVSPost2010Prop43
 90
        3
102
RTVSPost2010PropOp43
 70
     1
102
RTVSPost2010Prop44ColorIndex
 90
        5
102
RTVSPost2010Prop44ColorRGB
 90
      255
102
RTVSPost2010PropOp44
 70
     1
102
RTVSPost2010Prop45
280
     0
102
RTVSPost2010PropOp45
 70
     1
102
RTVSPost2010Prop46
 90
       50
102
RTVSPost2010PropOp46
 70
     1
102
RTVSPost2010Prop47
 90
       50
102
RTVSPost2010PropOp47
 70
     1
102
RTVSPost2010Prop48
 90
       50
102
RTVSPost2010PropOp48
 70
     1
102
RTVSPost2010Prop49
280
     0
102
RTVSPost2010PropOp49
 70
     1
102
RTVSPost2010Prop50
 90
       50
102
RTVSPost2010PropOp50
 70
     1
102
RTVSPost2010Prop51ColorIndex
 90
      256
102
RTVSPost2010Prop51ColorRGB
 90
-16777216
102
RTVSPost2010PropOp51
 70
     0
102
RTVSPost2010Prop52
140
1.0
102
RTVSPost2010PropOp52
 70
     0
102
RTVSPost2010Prop53
 90
        2
102
RTVSPost2010PropOp53
 70
     1
102
RTVSPost2010Prop54
  1
strokes_ogs.tif
102
RTVSPost2010PropOp54
 70
     1
102
RTVSPost2010Prop55
280
     0
102
RTVSPost2010PropOp55
 70
     1
102
RTVSPost2010Prop56
140
1.0
102
RTVSPost2010PropOp56
 70
     1
102
RTVSPost2010Prop57
140
1.0
102
RTVSPost2010PropOp57
 70
     1
102
RTVSPropertyOp0
 70
     1
102
RTVSPropertyOp1
 70
     1
102
RTVSPropertyOp2
 70
     1
102
RTVSPropertyOp3
 70
     1
102
RTVSPropertyOp4
 70
     1
102
RTVSPropertyOp5
 70
     1
102
RTVSPropertyOp6
 70
     1
102
RTVSPropertyOp7
 70
     1
102
RTVSPropertyOp8
 70
     1
102
RTVSPropertyOp9
 70
     1
102
RTVSPropertyOp10
 70
     1
102
RTVSPropertyOp11
 70
     1
102
RTVSPropertyOp12
 70
     1
102
RTVSPropertyOp13
 70
     1
102
RTVSPropertyOp14
 70
     1
102
RTVSPropertyOp15
 70
     1
102
RTVSPropertyOp16
 70
     1
102
RTVSPropertyOp17
 70
     1
102
RTVSPropertyOp18
 70
     1
102
RTVSPropertyOp19
 70
     1
102
RTVSPropertyOp20
 70
     1
102
RTVSPropertyOp21
 70
     1
102
RTVSPropertyOp22
 70
     1
102
RTVSPropertyOp23
 70
     1
102
RTVSPropertyOp24
 70
     1
102
RTVSPropertyOp25
 70
     1
102
RTVSPropertyOp26
 70
     1
102
RTVSPropertyOp27
 70
     1
102
RTVSPropertyOp28
 70
     1
102
RTVSPropertyOp29
 70
     1
102
RTVSPropertyOp30
 70
     1
102
RTVSPropertyOp31
 70
     1
102
RTVSPropertyOp32
 70
     1
102
RTVSPropertyOp33
 70
     1
102
RTVSPropertyOp34
 70
     1
102
RTVSPropertyOp35
 70
     1
102
RTVSPropertyOp36
 70
     1
102
RTVSPropertyOp37
 70
     1
102
RTVSPropertyOp38
 70
     1
102
RTVSPropertyOp39
 70
     1
102
RTVSPropertyOp40
 70
     1
102
RTVSPropertyOp41
 70
     1
102
RTVSPropertyOp42
 70
     1
102
RTVSPropertyOp43
 70
     1
102
RTVSPropertyOp44
 70
     1
102
RTVSPropertyOp45
 70
     1
102
RTVSPropertyOp46
 70
     1
102
RTVSPropertyOp47
 70
     1
102
RTVSPropertyOp48
 70
     1
102
RTVSPropertyOp49
 70
     1
102
RTVSPropertyOp50
 70
     1
102
RTVSPropertyOp51
 70
     0
102
RTVSPropertyOp52
 70
     0
102
RTVSPropertyOp53
 70
     1
102
RTVSPropertyOp54
 70
     1
102
RTVSPropertyOp55
 70
     1
102
RTVSPropertyOp56
 70
     1
102
RTVSPropertyOp57
 70
     1
102
RTVSPropertyOp58
 70
     1
102
RTVSPropertyOp59
 70
     1
102
RTVSPropertyOp60
 70
     1
102
RTVSPropertyOp61
 70
     1
102
RTVSPropertyOp62
 70
     1
  0
XRECORD
  5
39D7
102
{ACAD_REACTORS
330
39D6
102
}
330
39D6
100
AcDbXrecord
280
     1
102
RTVSPost2010Prop28
280
     0
102
RTVSPost2010PropOp28
 70
     1
102
RTVSPost2010Prop29
280
     1
102
RTVSPost2010PropOp29
 70
     1
102
RTVSPost2010Prop30
280
     1
102
RTVSPost2010PropOp30
 70
     1
102
RTVSPost2010Prop31
280
     0
102
RTVSPost2010PropOp31
 70
     1
102
RTVSPost2010Prop32
280
     0
102
RTVSPost2010PropOp32
 70
     1
102
RTVSPost2010Prop33
280
     0
102
RTVSPost2010PropOp33
 70
     1
102
RTVSPost2010Prop34
280
     0
102
RTVSPost2010PropOp34
 70
     1
102
RTVSPost2010Prop35
280
     0
102
RTVSPost2010PropOp35
 70
     1
102
RTVSPost2010Prop36
280
     0
102
RTVSPost2010PropOp36
 70
     1
102
RTVSPost2010Prop37
 90
       50
102
RTVSPost2010PropOp37
 70
     1
102
RTVSPost2010Prop38
140
0.0
102
RTVSPost2010PropOp38
 70
     1
102
RTVSPost2010Prop39
140
1.0
102
RTVSPost2010PropOp39
 70
     1
102
RTVSPost2010Prop40
 90
        0
102
RTVSPost2010PropOp40
 70
     1
102
RTVSPost2010Prop41ColorIndex
 90
       18
102
RTVSPost2010Prop41ColorRGB
 90
        0
102
RTVSPost2010PropOp41
 70
     1
102
RTVSPost2010Prop42
 90
       50
102
RTVSPost2010PropOp42
 70
     1
102
RTVSPost2010Prop43
 90
        3
102
RTVSPost2010PropOp43
 70
     1
102
RTVSPost2010Prop44ColorIndex
 90
        5
102
RTVSPost2010Prop44ColorRGB
 90
      255
102
RTVSPost2010PropOp44
 70
     1
102
RTVSPost2010Prop45
280
     0
102
RTVSPost2010PropOp45
 70
     1
102
RTVSPost2010Prop46
 90
       50
102
RTVSPost2010PropOp46
 70
     1
102
RTVSPost2010Prop47
 90
       50
102
RTVSPost2010PropOp47
 70
     1
102
RTVSPost2010Prop48
 90
       50
102
RTVSPost2010PropOp48
 70
     1
102
RTVSPost2010Prop49
280
     0
102
RTVSPost2010PropOp49
 70
     1
102
RTVSPost2010Prop50
 90
       50
102
RTVSPost2010PropOp50
 70
     1
102
RTVSPost2010Prop51ColorIndex
 90
      256
102
RTVSPost2010Prop51ColorRGB
 90
-16777216
102
RTVSPost2010PropOp51
 70
     0
102
RTVSPost2010Prop52
140
1.0
102
RTVSPost2010PropOp52
 70
     0
102
RTVSPost2010Prop53
 90
        2
102
RTVSPost2010PropOp53
 70
     1
102
RTVSPost2010Prop54
  1
strokes_ogs.tif
102
RTVSPost2010PropOp54
 70
     1
102
RTVSPost2010Prop55
280
     0
102
RTVSPost2010PropOp55
 70
     1
102
RTVSPost2010Prop56
140
1.0
102
RTVSPost2010PropOp56
 70
     1
102
RTVSPost2010Prop57
140
1.0
102
RTVSPost2010PropOp57
 70
     1
102
RTVSPropertyOp0
 70
     1
102
RTVSPropertyOp1
 70
     1
102
RTVSPropertyOp2
 70
     1
102
RTVSPropertyOp3
 70
     1
102
RTVSPropertyOp4
 70
     1
102
RTVSPropertyOp5
 70
     1
102
RTVSPropertyOp6
 70
     1
102
RTVSPropertyOp7
 70
     1
102
RTVSPropertyOp8
 70
     1
102
RTVSPropertyOp9
 70
     1
102
RTVSPropertyOp10
 70
     1
102
RTVSPropertyOp11
 70
     1
102
RTVSPropertyOp12
 70
     1
102
RTVSPropertyOp13
 70
     1
102
RTVSPropertyOp14
 70
     1
102
RTVSPropertyOp15
 70
     1
102
RTVSPropertyOp16
 70
     1
102
RTVSPropertyOp17
 70
     1
102
RTVSPropertyOp18
 70
     1
102
RTVSPropertyOp19
 70
     1
102
RTVSPropertyOp20
 70
     1
102
RTVSPropertyOp21
 70
     1
102
RTVSPropertyOp22
 70
     1
102
RTVSPropertyOp23
 70
     1
102
RTVSPropertyOp24
 70
     1
102
RTVSPropertyOp25
 70
     1
102
RTVSPropertyOp26
 70
     1
102
RTVSPropertyOp27
 70
     1
102
RTVSPropertyOp28
 70
     1
102
RTVSPropertyOp29
 70
     1
102
RTVSPropertyOp30
 70
     1
102
RTVSPropertyOp31
 70
     1
102
RTVSPropertyOp32
 70
     1
102
RTVSPropertyOp33
 70
     1
102
RTVSPropertyOp34
 70
     1
102
RTVSPropertyOp35
 70
     1
102
RTVSPropertyOp36
 70
     1
102
RTVSPropertyOp37
 70
     1
102
RTVSPropertyOp38
 70
     1
102
RTVSPropertyOp39
 70
     1
102
RTVSPropertyOp40
 70
     1
102
RTVSPropertyOp41
 70
     1
102
RTVSPropertyOp42
 70
     1
102
RTVSPropertyOp43
 70
     1
102
RTVSPropertyOp44
 70
     1
102
RTVSPropertyOp45
 70
     1
102
RTVSPropertyOp46
 70
     1
102
RTVSPropertyOp47
 70
     1
102
RTVSPropertyOp48
 70
     1
102
RTVSPropertyOp49
 70
     1
102
RTVSPropertyOp50
 70
     1
102
RTVSPropertyOp51
 70
     0
102
RTVSPropertyOp52
 70
     0
102
RTVSPropertyOp53
 70
     1
102
RTVSPropertyOp54
 70
     1
102
RTVSPropertyOp55
 70
     1
102
RTVSPropertyOp56
 70
     1
102
RTVSPropertyOp57
 70
     1
102
RTVSPropertyOp58
 70
     1
102
RTVSPropertyOp59
 70
     1
102
RTVSPropertyOp60
 70
     1
102
RTVSPropertyOp61
 70
     1
102
RTVSPropertyOp62
 70
     1
  0
XRECORD
  5
39D9
102
{ACAD_REACTORS
330
39D8
102
}
330
39D8
100
AcDbXrecord
280
     1
102
RTVSPost2010Prop28
280
     0
102
RTVSPost2010PropOp28
 70
     1
102
RTVSPost2010Prop29
280
     1
102
RTVSPost2010PropOp29
 70
     1
102
RTVSPost2010Prop30
280
     1
102
RTVSPost2010PropOp30
 70
     1
102
RTVSPost2010Prop31
280
     0
102
RTVSPost2010PropOp31
 70
     1
102
RTVSPost2010Prop32
280
     0
102
RTVSPost2010PropOp32
 70
     1
102
RTVSPost2010Prop33
280
     0
102
RTVSPost2010PropOp33
 70
     1
102
RTVSPost2010Prop34
280
     0
102
RTVSPost2010PropOp34
 70
     1
102
RTVSPost2010Prop35
280
     0
102
RTVSPost2010PropOp35
 70
     1
102
RTVSPost2010Prop36
280
     0
102
RTVSPost2010PropOp36
 70
     1
102
RTVSPost2010Prop37
 90
       50
102
RTVSPost2010PropOp37
 70
     1
102
RTVSPost2010Prop38
140
0.0
102
RTVSPost2010PropOp38
 70
     1
102
RTVSPost2010Prop39
140
1.0
102
RTVSPost2010PropOp39
 70
     1
102
RTVSPost2010Prop40
 90
        0
102
RTVSPost2010PropOp40
 70
     1
102
RTVSPost2010Prop41ColorIndex
 90
       18
102
RTVSPost2010Prop41ColorRGB
 90
        0
102
RTVSPost2010PropOp41
 70
     1
102
RTVSPost2010Prop42
 90
       50
102
RTVSPost2010PropOp42
 70
     1
102
RTVSPost2010Prop43
 90
        3
102
RTVSPost2010PropOp43
 70
     1
102
RTVSPost2010Prop44ColorIndex
 90
        5
102
RTVSPost2010Prop44ColorRGB
 90
      255
102
RTVSPost2010PropOp44
 70
     1
102
RTVSPost2010Prop45
280
     0
102
RTVSPost2010PropOp45
 70
     1
102
RTVSPost2010Prop46
 90
       50
102
RTVSPost2010PropOp46
 70
     1
102
RTVSPost2010Prop47
 90
       50
102
RTVSPost2010PropOp47
 70
     1
102
RTVSPost2010Prop48
 90
       50
102
RTVSPost2010PropOp48
 70
     1
102
RTVSPost2010Prop49
280
     0
102
RTVSPost2010PropOp49
 70
     1
102
RTVSPost2010Prop50
 90
       50
102
RTVSPost2010PropOp50
 70
     1
102
RTVSPost2010Prop51ColorIndex
 90
      256
102
RTVSPost2010Prop51ColorRGB
 90
-16777216
102
RTVSPost2010PropOp51
 70
     0
102
RTVSPost2010Prop52
140
1.0
102
RTVSPost2010PropOp52
 70
     0
102
RTVSPost2010Prop53
 90
        2
102
RTVSPost2010PropOp53
 70
     1
102
RTVSPost2010Prop54
  1
strokes_ogs.tif
102
RTVSPost2010PropOp54
 70
     1
102
RTVSPost2010Prop55
280
     0
102
RTVSPost2010PropOp55
 70
     1
102
RTVSPost2010Prop56
140
1.0
102
RTVSPost2010PropOp56
 70
     1
102
RTVSPost2010Prop57
140
1.0
102
RTVSPost2010PropOp57
 70
     1
102
RTVSPropertyOp0
 70
     1
102
RTVSPropertyOp1
 70
     1
102
RTVSPropertyOp2
 70
     1
102
RTVSPropertyOp3
 70
     1
102
RTVSPropertyOp4
 70
     1
102
RTVSPropertyOp5
 70
     1
102
RTVSPropertyOp6
 70
     1
102
RTVSPropertyOp7
 70
     1
102
RTVSPropertyOp8
 70
     1
102
RTVSPropertyOp9
 70
     1
102
RTVSPropertyOp10
 70
     1
102
RTVSPropertyOp11
 70
     1
102
RTVSPropertyOp12
 70
     1
102
RTVSPropertyOp13
 70
     1
102
RTVSPropertyOp14
 70
     1
102
RTVSPropertyOp15
 70
     1
102
RTVSPropertyOp16
 70
     1
102
RTVSPropertyOp17
 70
     1
102
RTVSPropertyOp18
 70
     1
102
RTVSPropertyOp19
 70
     1
102
RTVSPropertyOp20
 70
     1
102
RTVSPropertyOp21
 70
     1
102
RTVSPropertyOp22
 70
     1
102
RTVSPropertyOp23
 70
     1
102
RTVSPropertyOp24
 70
     1
102
RTVSPropertyOp25
 70
     1
102
RTVSPropertyOp26
 70
     1
102
RTVSPropertyOp27
 70
     1
102
RTVSPropertyOp28
 70
     1
102
RTVSPropertyOp29
 70
     1
102
RTVSPropertyOp30
 70
     1
102
RTVSPropertyOp31
 70
     1
102
RTVSPropertyOp32
 70
     1
102
RTVSPropertyOp33
 70
     1
102
RTVSPropertyOp34
 70
     1
102
RTVSPropertyOp35
 70
     1
102
RTVSPropertyOp36
 70
     1
102
RTVSPropertyOp37
 70
     1
102
RTVSPropertyOp38
 70
     1
102
RTVSPropertyOp39
 70
     1
102
RTVSPropertyOp40
 70
     1
102
RTVSPropertyOp41
 70
     1
102
RTVSPropertyOp42
 70
     1
102
RTVSPropertyOp43
 70
     1
102
RTVSPropertyOp44
 70
     1
102
RTVSPropertyOp45
 70
     1
102
RTVSPropertyOp46
 70
     1
102
RTVSPropertyOp47
 70
     1
102
RTVSPropertyOp48
 70
     1
102
RTVSPropertyOp49
 70
     1
102
RTVSPropertyOp50
 70
     1
102
RTVSPropertyOp51
 70
     0
102
RTVSPropertyOp52
 70
     0
102
RTVSPropertyOp53
 70
     1
102
RTVSPropertyOp54
 70
     1
102
RTVSPropertyOp55
 70
     1
102
RTVSPropertyOp56
 70
     1
102
RTVSPropertyOp57
 70
     1
102
RTVSPropertyOp58
 70
     1
102
RTVSPropertyOp59
 70
     1
102
RTVSPropertyOp60
 70
     1
102
RTVSPropertyOp61
 70
     1
102
RTVSPropertyOp62
 70
     1
  0
XRECORD
  5
39DB
102
{ACAD_REACTORS
330
39DA
102
}
330
39DA
100
AcDbXrecord
280
     1
102
RTVSPost2010Prop28
280
     0
102
RTVSPost2010PropOp28
 70
     1
102
RTVSPost2010Prop29
280
     1
102
RTVSPost2010PropOp29
 70
     1
102
RTVSPost2010Prop30
280
     1
102
RTVSPost2010PropOp30
 70
     1
102
RTVSPost2010Prop31
280
     0
102
RTVSPost2010PropOp31
 70
     1
102
RTVSPost2010Prop32
280
     0
102
RTVSPost2010PropOp32
 70
     1
102
RTVSPost2010Prop33
280
     0
102
RTVSPost2010PropOp33
 70
     1
102
RTVSPost2010Prop34
280
     0
102
RTVSPost2010PropOp34
 70
     1
102
RTVSPost2010Prop35
280
     0
102
RTVSPost2010PropOp35
 70
     1
102
RTVSPost2010Prop36
280
     0
102
RTVSPost2010PropOp36
 70
     1
102
RTVSPost2010Prop37
 90
       50
102
RTVSPost2010PropOp37
 70
     1
102
RTVSPost2010Prop38
140
0.0
102
RTVSPost2010PropOp38
 70
     1
102
RTVSPost2010Prop39
140
1.0
102
RTVSPost2010PropOp39
 70
     1
102
RTVSPost2010Prop40
 90
        0
102
RTVSPost2010PropOp40
 70
     1
102
RTVSPost2010Prop41ColorIndex
 90
       18
102
RTVSPost2010Prop41ColorRGB
 90
        0
102
RTVSPost2010PropOp41
 70
     1
102
RTVSPost2010Prop42
 90
       50
102
RTVSPost2010PropOp42
 70
     1
102
RTVSPost2010Prop43
 90
        3
102
RTVSPost2010PropOp43
 70
     1
102
RTVSPost2010Prop44ColorIndex
 90
        5
102
RTVSPost2010Prop44ColorRGB
 90
      255
102
RTVSPost2010PropOp44
 70
     1
102
RTVSPost2010Prop45
280
     0
102
RTVSPost2010PropOp45
 70
     1
102
RTVSPost2010Prop46
 90
       50
102
RTVSPost2010PropOp46
 70
     1
102
RTVSPost2010Prop47
 90
       50
102
RTVSPost2010PropOp47
 70
     1
102
RTVSPost2010Prop48
 90
       50
102
RTVSPost2010PropOp48
 70
     1
102
RTVSPost2010Prop49
280
     0
102
RTVSPost2010PropOp49
 70
     1
102
RTVSPost2010Prop50
 90
       50
102
RTVSPost2010PropOp50
 70
     1
102
RTVSPost2010Prop51ColorIndex
 90
      256
102
RTVSPost2010Prop51ColorRGB
 90
-16777216
102
RTVSPost2010PropOp51
 70
     0
102
RTVSPost2010Prop52
140
1.0
102
RTVSPost2010PropOp52
 70
     0
102
RTVSPost2010Prop53
 90
        2
102
RTVSPost2010PropOp53
 70
     1
102
RTVSPost2010Prop54
  1
strokes_ogs.tif
102
RTVSPost2010PropOp54
 70
     1
102
RTVSPost2010Prop55
280
     0
102
RTVSPost2010PropOp55
 70
     1
102
RTVSPost2010Prop56
140
1.0
102
RTVSPost2010PropOp56
 70
     1
102
RTVSPost2010Prop57
140
1.0
102
RTVSPost2010PropOp57
 70
     1
102
RTVSPropertyOp0
 70
     1
102
RTVSPropertyOp1
 70
     1
102
RTVSPropertyOp2
 70
     1
102
RTVSPropertyOp3
 70
     1
102
RTVSPropertyOp4
 70
     1
102
RTVSPropertyOp5
 70
     1
102
RTVSPropertyOp6
 70
     1
102
RTVSPropertyOp7
 70
     1
102
RTVSPropertyOp8
 70
     1
102
RTVSPropertyOp9
 70
     1
102
RTVSPropertyOp10
 70
     1
102
RTVSPropertyOp11
 70
     1
102
RTVSPropertyOp12
 70
     1
102
RTVSPropertyOp13
 70
     1
102
RTVSPropertyOp14
 70
     1
102
RTVSPropertyOp15
 70
     1
102
RTVSPropertyOp16
 70
     1
102
RTVSPropertyOp17
 70
     1
102
RTVSPropertyOp18
 70
     1
102
RTVSPropertyOp19
 70
     1
102
RTVSPropertyOp20
 70
     1
102
RTVSPropertyOp21
 70
     1
102
RTVSPropertyOp22
 70
     1
102
RTVSPropertyOp23
 70
     1
102
RTVSPropertyOp24
 70
     1
102
RTVSPropertyOp25
 70
     1
102
RTVSPropertyOp26
 70
     1
102
RTVSPropertyOp27
 70
     1
102
RTVSPropertyOp28
 70
     1
102
RTVSPropertyOp29
 70
     1
102
RTVSPropertyOp30
 70
     1
102
RTVSPropertyOp31
 70
     1
102
RTVSPropertyOp32
 70
     1
102
RTVSPropertyOp33
 70
     1
102
RTVSPropertyOp34
 70
     1
102
RTVSPropertyOp35
 70
     1
102
RTVSPropertyOp36
 70
     1
102
RTVSPropertyOp37
 70
     1
102
RTVSPropertyOp38
 70
     1
102
RTVSPropertyOp39
 70
     1
102
RTVSPropertyOp40
 70
     1
102
RTVSPropertyOp41
 70
     1
102
RTVSPropertyOp42
 70
     1
102
RTVSPropertyOp43
 70
     1
102
RTVSPropertyOp44
 70
     1
102
RTVSPropertyOp45
 70
     1
102
RTVSPropertyOp46
 70
     1
102
RTVSPropertyOp47
 70
     1
102
RTVSPropertyOp48
 70
     1
102
RTVSPropertyOp49
 70
     1
102
RTVSPropertyOp50
 70
     1
102
RTVSPropertyOp51
 70
     0
102
RTVSPropertyOp52
 70
     0
102
RTVSPropertyOp53
 70
     1
102
RTVSPropertyOp54
 70
     1
102
RTVSPropertyOp55
 70
     1
102
RTVSPropertyOp56
 70
     1
102
RTVSPropertyOp57
 70
     1
102
RTVSPropertyOp58
 70
     1
102
RTVSPropertyOp59
 70
     1
102
RTVSPropertyOp60
 70
     1
102
RTVSPropertyOp61
 70
     1
102
RTVSPropertyOp62
 70
     1
  0
XRECORD
  5
39DD
102
{ACAD_REACTORS
330
39DC
102
}
330
39DC
100
AcDbXrecord
280
     1
102
RTVSPost2010Prop28
280
     0
102
RTVSPost2010PropOp28
 70
     1
102
RTVSPost2010Prop29
280
     1
102
RTVSPost2010PropOp29
 70
     1
102
RTVSPost2010Prop30
280
     1
102
RTVSPost2010PropOp30
 70
     1
102
RTVSPost2010Prop31
280
     0
102
RTVSPost2010PropOp31
 70
     1
102
RTVSPost2010Prop32
280
     0
102
RTVSPost2010PropOp32
 70
     1
102
RTVSPost2010Prop33
280
     0
102
RTVSPost2010PropOp33
 70
     1
102
RTVSPost2010Prop34
280
     0
102
RTVSPost2010PropOp34
 70
     1
102
RTVSPost2010Prop35
280
     0
102
RTVSPost2010PropOp35
 70
     1
102
RTVSPost2010Prop36
280
     0
102
RTVSPost2010PropOp36
 70
     1
102
RTVSPost2010Prop37
 90
       50
102
RTVSPost2010PropOp37
 70
     1
102
RTVSPost2010Prop38
140
0.0
102
RTVSPost2010PropOp38
 70
     1
102
RTVSPost2010Prop39
140
1.0
102
RTVSPost2010PropOp39
 70
     1
102
RTVSPost2010Prop40
 90
        0
102
RTVSPost2010PropOp40
 70
     1
102
RTVSPost2010Prop41ColorIndex
 90
       18
102
RTVSPost2010Prop41ColorRGB
 90
        0
102
RTVSPost2010PropOp41
 70
     1
102
RTVSPost2010Prop42
 90
       50
102
RTVSPost2010PropOp42
 70
     1
102
RTVSPost2010Prop43
 90
        3
102
RTVSPost2010PropOp43
 70
     1
102
RTVSPost2010Prop44ColorIndex
 90
        5
102
RTVSPost2010Prop44ColorRGB
 90
      255
102
RTVSPost2010PropOp44
 70
     1
102
RTVSPost2010Prop45
280
     0
102
RTVSPost2010PropOp45
 70
     1
102
RTVSPost2010Prop46
 90
       50
102
RTVSPost2010PropOp46
 70
     1
102
RTVSPost2010Prop47
 90
       50
102
RTVSPost2010PropOp47
 70
     1
102
RTVSPost2010Prop48
 90
       50
102
RTVSPost2010PropOp48
 70
     1
102
RTVSPost2010Prop49
280
     0
102
RTVSPost2010PropOp49
 70
     1
102
RTVSPost2010Prop50
 90
       50
102
RTVSPost2010PropOp50
 70
     1
102
RTVSPost2010Prop51ColorIndex
 90
      256
102
RTVSPost2010Prop51ColorRGB
 90
-16777216
102
RTVSPost2010PropOp51
 70
     0
102
RTVSPost2010Prop52
140
1.0
102
RTVSPost2010PropOp52
 70
     0
102
RTVSPost2010Prop53
 90
        2
102
RTVSPost2010PropOp53
 70
     1
102
RTVSPost2010Prop54
  1
strokes_ogs.tif
102
RTVSPost2010PropOp54
 70
     1
102
RTVSPost2010Prop55
280
     0
102
RTVSPost2010PropOp55
 70
     1
102
RTVSPost2010Prop56
140
1.0
102
RTVSPost2010PropOp56
 70
     1
102
RTVSPost2010Prop57
140
1.0
102
RTVSPost2010PropOp57
 70
     1
102
RTVSPropertyOp0
 70
     1
102
RTVSPropertyOp1
 70
     1
102
RTVSPropertyOp2
 70
     1
102
RTVSPropertyOp3
 70
     1
102
RTVSPropertyOp4
 70
     1
102
RTVSPropertyOp5
 70
     1
102
RTVSPropertyOp6
 70
     1
102
RTVSPropertyOp7
 70
     1
102
RTVSPropertyOp8
 70
     1
102
RTVSPropertyOp9
 70
     1
102
RTVSPropertyOp10
 70
     1
102
RTVSPropertyOp11
 70
     1
102
RTVSPropertyOp12
 70
     1
102
RTVSPropertyOp13
 70
     1
102
RTVSPropertyOp14
 70
     1
102
RTVSPropertyOp15
 70
     1
102
RTVSPropertyOp16
 70
     1
102
RTVSPropertyOp17
 70
     1
102
RTVSPropertyOp18
 70
     1
102
RTVSPropertyOp19
 70
     1
102
RTVSPropertyOp20
 70
     1
102
RTVSPropertyOp21
 70
     1
102
RTVSPropertyOp22
 70
     1
102
RTVSPropertyOp23
 70
     1
102
RTVSPropertyOp24
 70
     1
102
RTVSPropertyOp25
 70
     1
102
RTVSPropertyOp26
 70
     1
102
RTVSPropertyOp27
 70
     1
102
RTVSPropertyOp28
 70
     1
102
RTVSPropertyOp29
 70
     1
102
RTVSPropertyOp30
 70
     1
102
RTVSPropertyOp31
 70
     1
102
RTVSPropertyOp32
 70
     1
102
RTVSPropertyOp33
 70
     1
102
RTVSPropertyOp34
 70
     1
102
RTVSPropertyOp35
 70
     1
102
RTVSPropertyOp36
 70
     1
102
RTVSPropertyOp37
 70
     1
102
RTVSPropertyOp38
 70
     1
102
RTVSPropertyOp39
 70
     1
102
RTVSPropertyOp40
 70
     1
102
RTVSPropertyOp41
 70
     1
102
RTVSPropertyOp42
 70
     1
102
RTVSPropertyOp43
 70
     1
102
RTVSPropertyOp44
 70
     1
102
RTVSPropertyOp45
 70
     1
102
RTVSPropertyOp46
 70
     1
102
RTVSPropertyOp47
 70
     1
102
RTVSPropertyOp48
 70
     1
102
RTVSPropertyOp49
 70
     1
102
RTVSPropertyOp50
 70
     1
102
RTVSPropertyOp51
 70
     0
102
RTVSPropertyOp52
 70
     0
102
RTVSPropertyOp53
 70
     1
102
RTVSPropertyOp54
 70
     1
102
RTVSPropertyOp55
 70
     1
102
RTVSPropertyOp56
 70
     1
102
RTVSPropertyOp57
 70
     1
102
RTVSPropertyOp58
 70
     1
102
RTVSPropertyOp59
 70
     1
102
RTVSPropertyOp60
 70
     1
102
RTVSPropertyOp61
 70
     1
102
RTVSPropertyOp62
 70
     1
  0
XRECORD
  5
39E5
102
{ACAD_REACTORS
330
39E4
102
}
330
39E4
100
AcDbXrecord
280
     1
102
RTVSPost2010Prop28
280
     0
102
RTVSPost2010PropOp28
 70
     1
102
RTVSPost2010Prop29
280
     1
102
RTVSPost2010PropOp29
 70
     1
102
RTVSPost2010Prop30
280
     1
102
RTVSPost2010PropOp30
 70
     1
102
RTVSPost2010Prop31
280
     0
102
RTVSPost2010PropOp31
 70
     1
102
RTVSPost2010Prop32
280
     0
102
RTVSPost2010PropOp32
 70
     1
102
RTVSPost2010Prop33
280
     0
102
RTVSPost2010PropOp33
 70
     1
102
RTVSPost2010Prop34
280
     0
102
RTVSPost2010PropOp34
 70
     1
102
RTVSPost2010Prop35
280
     0
102
RTVSPost2010PropOp35
 70
     1
102
RTVSPost2010Prop36
280
     0
102
RTVSPost2010PropOp36
 70
     1
102
RTVSPost2010Prop37
 90
       50
102
RTVSPost2010PropOp37
 70
     1
102
RTVSPost2010Prop38
140
0.0
102
RTVSPost2010PropOp38
 70
     1
102
RTVSPost2010Prop39
140
1.0
102
RTVSPost2010PropOp39
 70
     1
102
RTVSPost2010Prop40
 90
        0
102
RTVSPost2010PropOp40
 70
     1
102
RTVSPost2010Prop41ColorIndex
 90
       18
102
RTVSPost2010Prop41ColorRGB
 90
        0
102
RTVSPost2010PropOp41
 70
     1
102
RTVSPost2010Prop42
 90
       50
102
RTVSPost2010PropOp42
 70
     1
102
RTVSPost2010Prop43
 90
        3
102
RTVSPost2010PropOp43
 70
     1
102
RTVSPost2010Prop44ColorIndex
 90
        5
102
RTVSPost2010Prop44ColorRGB
 90
      255
102
RTVSPost2010PropOp44
 70
     1
102
RTVSPost2010Prop45
280
     0
102
RTVSPost2010PropOp45
 70
     1
102
RTVSPost2010Prop46
 90
       50
102
RTVSPost2010PropOp46
 70
     1
102
RTVSPost2010Prop47
 90
       50
102
RTVSPost2010PropOp47
 70
     1
102
RTVSPost2010Prop48
 90
       50
102
RTVSPost2010PropOp48
 70
     1
102
RTVSPost2010Prop49
280
     0
102
RTVSPost2010PropOp49
 70
     1
102
RTVSPost2010Prop50
 90
       50
102
RTVSPost2010PropOp50
 70
     1
102
RTVSPost2010Prop51ColorIndex
 90
      256
102
RTVSPost2010Prop51ColorRGB
 90
-16777216
102
RTVSPost2010PropOp51
 70
     0
102
RTVSPost2010Prop52
140
1.0
102
RTVSPost2010PropOp52
 70
     0
102
RTVSPost2010Prop53
 90
        2
102
RTVSPost2010PropOp53
 70
     1
102
RTVSPost2010Prop54
  1
strokes_ogs.tif
102
RTVSPost2010PropOp54
 70
     1
102
RTVSPost2010Prop55
280
     0
102
RTVSPost2010PropOp55
 70
     1
102
RTVSPost2010Prop56
140
1.0
102
RTVSPost2010PropOp56
 70
     1
102
RTVSPost2010Prop57
140
1.0
102
RTVSPost2010PropOp57
 70
     1
102
RTVSPropertyOp0
 70
     1
102
RTVSPropertyOp1
 70
     1
102
RTVSPropertyOp2
 70
     1
102
RTVSPropertyOp3
 70
     1
102
RTVSPropertyOp4
 70
     1
102
RTVSPropertyOp5
 70
     1
102
RTVSPropertyOp6
 70
     1
102
RTVSPropertyOp7
 70
     1
102
RTVSPropertyOp8
 70
     1
102
RTVSPropertyOp9
 70
     1
102
RTVSPropertyOp10
 70
     1
102
RTVSPropertyOp11
 70
     1
102
RTVSPropertyOp12
 70
     1
102
RTVSPropertyOp13
 70
     1
102
RTVSPropertyOp14
 70
     1
102
RTVSPropertyOp15
 70
     1
102
RTVSPropertyOp16
 70
     1
102
RTVSPropertyOp17
 70
     1
102
RTVSPropertyOp18
 70
     1
102
RTVSPropertyOp19
 70
     1
102
RTVSPropertyOp20
 70
     1
102
RTVSPropertyOp21
 70
     1
102
RTVSPropertyOp22
 70
     1
102
RTVSPropertyOp23
 70
     1
102
RTVSPropertyOp24
 70
     1
102
RTVSPropertyOp25
 70
     1
102
RTVSPropertyOp26
 70
     1
102
RTVSPropertyOp27
 70
     1
102
RTVSPropertyOp28
 70
     1
102
RTVSPropertyOp29
 70
     1
102
RTVSPropertyOp30
 70
     1
102
RTVSPropertyOp31
 70
     1
102
RTVSPropertyOp32
 70
     1
102
RTVSPropertyOp33
 70
     1
102
RTVSPropertyOp34
 70
     1
102
RTVSPropertyOp35
 70
     1
102
RTVSPropertyOp36
 70
     1
102
RTVSPropertyOp37
 70
     1
102
RTVSPropertyOp38
 70
     1
102
RTVSPropertyOp39
 70
     1
102
RTVSPropertyOp40
 70
     1
102
RTVSPropertyOp41
 70
     1
102
RTVSPropertyOp42
 70
     1
102
RTVSPropertyOp43
 70
     1
102
RTVSPropertyOp44
 70
     1
102
RTVSPropertyOp45
 70
     1
102
RTVSPropertyOp46
 70
     1
102
RTVSPropertyOp47
 70
     1
102
RTVSPropertyOp48
 70
     1
102
RTVSPropertyOp49
 70
     1
102
RTVSPropertyOp50
 70
     1
102
RTVSPropertyOp51
 70
     0
102
RTVSPropertyOp52
 70
     0
102
RTVSPropertyOp53
 70
     1
102
RTVSPropertyOp54
 70
     1
102
RTVSPropertyOp55
 70
     1
102
RTVSPropertyOp56
 70
     1
102
RTVSPropertyOp57
 70
     1
102
RTVSPropertyOp58
 70
     1
102
RTVSPropertyOp59
 70
     1
102
RTVSPropertyOp60
 70
     1
102
RTVSPropertyOp61
 70
     1
102
RTVSPropertyOp62
 70
     1
  0
XRECORD
  5
39F9
102
{ACAD_REACTORS
330
39F8
102
}
330
39F8
100
AcDbXrecord
280
     1
102
RTVSPost2010Prop28
280
     0
102
RTVSPost2010PropOp28
 70
     1
102
RTVSPost2010Prop29
280
     1
102
RTVSPost2010PropOp29
 70
     1
102
RTVSPost2010Prop30
280
     1
102
RTVSPost2010PropOp30
 70
     1
102
RTVSPost2010Prop31
280
     0
102
RTVSPost2010PropOp31
 70
     1
102
RTVSPost2010Prop32
280
     0
102
RTVSPost2010PropOp32
 70
     1
102
RTVSPost2010Prop33
280
     0
102
RTVSPost2010PropOp33
 70
     1
102
RTVSPost2010Prop34
280
     0
102
RTVSPost2010PropOp34
 70
     1
102
RTVSPost2010Prop35
280
     0
102
RTVSPost2010PropOp35
 70
     1
102
RTVSPost2010Prop36
280
     0
102
RTVSPost2010PropOp36
 70
     1
102
RTVSPost2010Prop37
 90
       50
102
RTVSPost2010PropOp37
 70
     1
102
RTVSPost2010Prop38
140
0.0
102
RTVSPost2010PropOp38
 70
     1
102
RTVSPost2010Prop39
140
1.0
102
RTVSPost2010PropOp39
 70
     1
102
RTVSPost2010Prop40
 90
        0
102
RTVSPost2010PropOp40
 70
     1
102
RTVSPost2010Prop41ColorIndex
 90
       18
102
RTVSPost2010Prop41ColorRGB
 90
        0
102
RTVSPost2010PropOp41
 70
     1
102
RTVSPost2010Prop42
 90
       50
102
RTVSPost2010PropOp42
 70
     1
102
RTVSPost2010Prop43
 90
        3
102
RTVSPost2010PropOp43
 70
     1
102
RTVSPost2010Prop44ColorIndex
 90
        5
102
RTVSPost2010Prop44ColorRGB
 90
      255
102
RTVSPost2010PropOp44
 70
     1
102
RTVSPost2010Prop45
280
     0
102
RTVSPost2010PropOp45
 70
     1
102
RTVSPost2010Prop46
 90
       50
102
RTVSPost2010PropOp46
 70
     1
102
RTVSPost2010Prop47
 90
       50
102
RTVSPost2010PropOp47
 70
     1
102
RTVSPost2010Prop48
 90
       50
102
RTVSPost2010PropOp48
 70
     1
102
RTVSPost2010Prop49
280
     0
102
RTVSPost2010PropOp49
 70
     1
102
RTVSPost2010Prop50
 90
       50
102
RTVSPost2010PropOp50
 70
     1
102
RTVSPost2010Prop51ColorIndex
 90
      256
102
RTVSPost2010Prop51ColorRGB
 90
-16777216
102
RTVSPost2010PropOp51
 70
     0
102
RTVSPost2010Prop52
140
1.0
102
RTVSPost2010PropOp52
 70
     0
102
RTVSPost2010Prop53
 90
        2
102
RTVSPost2010PropOp53
 70
     1
102
RTVSPost2010Prop54
  1
strokes_ogs.tif
102
RTVSPost2010PropOp54
 70
     1
102
RTVSPost2010Prop55
280
     0
102
RTVSPost2010PropOp55
 70
     1
102
RTVSPost2010Prop56
140
1.0
102
RTVSPost2010PropOp56
 70
     1
102
RTVSPost2010Prop57
140
1.0
102
RTVSPost2010PropOp57
 70
     1
102
RTVSPropertyOp0
 70
     0
102
RTVSPropertyOp1
 70
     0
102
RTVSPropertyOp2
 70
     0
102
RTVSPropertyOp3
 70
     0
102
RTVSPropertyOp4
 70
     0
102
RTVSPropertyOp5
 70
     0
102
RTVSPropertyOp6
 70
     0
102
RTVSPropertyOp7
 70
     0
102
RTVSPropertyOp8
 70
     0
102
RTVSPropertyOp9
 70
     0
102
RTVSPropertyOp10
 70
     0
102
RTVSPropertyOp11
 70
     0
102
RTVSPropertyOp12
 70
     0
102
RTVSPropertyOp13
 70
     0
102
RTVSPropertyOp14
 70
     2
102
RTVSPropertyOp15
 70
     0
102
RTVSPropertyOp16
 70
     0
102
RTVSPropertyOp17
 70
     0
102
RTVSPropertyOp18
 70
     0
102
RTVSPropertyOp19
 70
     0
102
RTVSPropertyOp20
 70
     0
102
RTVSPropertyOp21
 70
     0
102
RTVSPropertyOp22
 70
     0
102
RTVSPropertyOp23
 70
     0
102
RTVSPropertyOp24
 70
     0
102
RTVSPropertyOp25
 70
     0
102
RTVSPropertyOp26
 70
     0
102
RTVSPropertyOp27
 70
     0
102
RTVSPropertyOp28
 70
     1
102
RTVSPropertyOp29
 70
     1
102
RTVSPropertyOp30
 70
     1
102
RTVSPropertyOp31
 70
     1
102
RTVSPropertyOp32
 70
     1
102
RTVSPropertyOp33
 70
     1
102
RTVSPropertyOp34
 70
     1
102
RTVSPropertyOp35
 70
     1
102
RTVSPropertyOp36
 70
     1
102
RTVSPropertyOp37
 70
     1
102
RTVSPropertyOp38
 70
     1
102
RTVSPropertyOp39
 70
     1
102
RTVSPropertyOp40
 70
     1
102
RTVSPropertyOp41
 70
     1
102
RTVSPropertyOp42
 70
     1
102
RTVSPropertyOp43
 70
     1
102
RTVSPropertyOp44
 70
     1
102
RTVSPropertyOp45
 70
     1
102
RTVSPropertyOp46
 70
     1
102
RTVSPropertyOp47
 70
     1
102
RTVSPropertyOp48
 70
     1
102
RTVSPropertyOp49
 70
     1
102
RTVSPropertyOp50
 70
     1
102
RTVSPropertyOp51
 70
     0
102
RTVSPropertyOp52
 70
     0
102
RTVSPropertyOp53
 70
     1
102
RTVSPropertyOp54
 70
     1
102
RTVSPropertyOp55
 70
     1
102
RTVSPropertyOp56
 70
     1
102
RTVSPropertyOp57
 70
     1
102
RTVSPropertyOp58
 70
     1
102
RTVSPropertyOp59
 70
     1
102
RTVSPropertyOp60
 70
     1
102
RTVSPropertyOp61
 70
     1
102
RTVSPropertyOp62
 70
     1
  0
XRECORD
  5
39F1
102
{ACAD_REACTORS
330
39F0
102
}
330
39F0
100
AcDbXrecord
280
     1
102
RTVSPost2010Prop28
280
     0
102
RTVSPost2010PropOp28
 70
     1
102
RTVSPost2010Prop29
280
     1
102
RTVSPost2010PropOp29
 70
     1
102
RTVSPost2010Prop30
280
     1
102
RTVSPost2010PropOp30
 70
     1
102
RTVSPost2010Prop31
280
     0
102
RTVSPost2010PropOp31
 70
     1
102
RTVSPost2010Prop32
280
     0
102
RTVSPost2010PropOp32
 70
     1
102
RTVSPost2010Prop33
280
     0
102
RTVSPost2010PropOp33
 70
     1
102
RTVSPost2010Prop34
280
     0
102
RTVSPost2010PropOp34
 70
     1
102
RTVSPost2010Prop35
280
     0
102
RTVSPost2010PropOp35
 70
     1
102
RTVSPost2010Prop36
280
     0
102
RTVSPost2010PropOp36
 70
     1
102
RTVSPost2010Prop37
 90
       50
102
RTVSPost2010PropOp37
 70
     1
102
RTVSPost2010Prop38
140
0.0
102
RTVSPost2010PropOp38
 70
     1
102
RTVSPost2010Prop39
140
1.0
102
RTVSPost2010PropOp39
 70
     1
102
RTVSPost2010Prop40
 90
        0
102
RTVSPost2010PropOp40
 70
     1
102
RTVSPost2010Prop41ColorIndex
 90
       18
102
RTVSPost2010Prop41ColorRGB
 90
        0
102
RTVSPost2010PropOp41
 70
     1
102
RTVSPost2010Prop42
 90
       50
102
RTVSPost2010PropOp42
 70
     1
102
RTVSPost2010Prop43
 90
        3
102
RTVSPost2010PropOp43
 70
     1
102
RTVSPost2010Prop44ColorIndex
 90
        5
102
RTVSPost2010Prop44ColorRGB
 90
      255
102
RTVSPost2010PropOp44
 70
     1
102
RTVSPost2010Prop45
280
     0
102
RTVSPost2010PropOp45
 70
     1
102
RTVSPost2010Prop46
 90
       50
102
RTVSPost2010PropOp46
 70
     1
102
RTVSPost2010Prop47
 90
       50
102
RTVSPost2010PropOp47
 70
     1
102
RTVSPost2010Prop48
 90
       50
102
RTVSPost2010PropOp48
 70
     1
102
RTVSPost2010Prop49
280
     0
102
RTVSPost2010PropOp49
 70
     1
102
RTVSPost2010Prop50
 90
       50
102
RTVSPost2010PropOp50
 70
     1
102
RTVSPost2010Prop51ColorIndex
 90
      256
102
RTVSPost2010Prop51ColorRGB
 90
-16777216
102
RTVSPost2010PropOp51
 70
     0
102
RTVSPost2010Prop52
140
1.0
102
RTVSPost2010PropOp52
 70
     0
102
RTVSPost2010Prop53
 90
        2
102
RTVSPost2010PropOp53
 70
     1
102
RTVSPost2010Prop54
  1
strokes_ogs.tif
102
RTVSPost2010PropOp54
 70
     1
102
RTVSPost2010Prop55
280
     0
102
RTVSPost2010PropOp55
 70
     1
102
RTVSPost2010Prop56
140
1.0
102
RTVSPost2010PropOp56
 70
     1
102
RTVSPost2010Prop57
140
1.0
102
RTVSPost2010PropOp57
 70
     1
102
RTVSPropertyOp0
 70
     1
102
RTVSPropertyOp1
 70
     1
102
RTVSPropertyOp2
 70
     1
102
RTVSPropertyOp3
 70
     1
102
RTVSPropertyOp4
 70
     1
102
RTVSPropertyOp5
 70
     1
102
RTVSPropertyOp6
 70
     1
102
RTVSPropertyOp7
 70
     1
102
RTVSPropertyOp8
 70
     1
102
RTVSPropertyOp9
 70
     1
102
RTVSPropertyOp10
 70
     1
102
RTVSPropertyOp11
 70
     1
102
RTVSPropertyOp12
 70
     1
102
RTVSPropertyOp13
 70
     1
102
RTVSPropertyOp14
 70
     1
102
RTVSPropertyOp15
 70
     1
102
RTVSPropertyOp16
 70
     1
102
RTVSPropertyOp17
 70
     1
102
RTVSPropertyOp18
 70
     1
102
RTVSPropertyOp19
 70
     1
102
RTVSPropertyOp20
 70
     1
102
RTVSPropertyOp21
 70
     1
102
RTVSPropertyOp22
 70
     1
102
RTVSPropertyOp23
 70
     1
102
RTVSPropertyOp24
 70
     1
102
RTVSPropertyOp25
 70
     1
102
RTVSPropertyOp26
 70
     1
102
RTVSPropertyOp27
 70
     1
102
RTVSPropertyOp28
 70
     1
102
RTVSPropertyOp29
 70
     1
102
RTVSPropertyOp30
 70
     1
102
RTVSPropertyOp31
 70
     1
102
RTVSPropertyOp32
 70
     1
102
RTVSPropertyOp33
 70
     1
102
RTVSPropertyOp34
 70
     1
102
RTVSPropertyOp35
 70
     1
102
RTVSPropertyOp36
 70
     1
102
RTVSPropertyOp37
 70
     1
102
RTVSPropertyOp38
 70
     1
102
RTVSPropertyOp39
 70
     1
102
RTVSPropertyOp40
 70
     1
102
RTVSPropertyOp41
 70
     1
102
RTVSPropertyOp42
 70
     1
102
RTVSPropertyOp43
 70
     1
102
RTVSPropertyOp44
 70
     1
102
RTVSPropertyOp45
 70
     1
102
RTVSPropertyOp46
 70
     1
102
RTVSPropertyOp47
 70
     1
102
RTVSPropertyOp48
 70
     1
102
RTVSPropertyOp49
 70
     1
102
RTVSPropertyOp50
 70
     1
102
RTVSPropertyOp51
 70
     0
102
RTVSPropertyOp52
 70
     0
102
RTVSPropertyOp53
 70
     1
102
RTVSPropertyOp54
 70
     1
102
RTVSPropertyOp55
 70
     1
102
RTVSPropertyOp56
 70
     1
102
RTVSPropertyOp57
 70
     1
102
RTVSPropertyOp58
 70
     1
102
RTVSPropertyOp59
 70
     1
102
RTVSPropertyOp60
 70
     1
102
RTVSPropertyOp61
 70
     1
102
RTVSPropertyOp62
 70
     1
  0
XRECORD
  5
39FB
102
{ACAD_REACTORS
330
39FA
102
}
330
39FA
100
AcDbXrecord
280
     1
102
RTVSPost2010Prop28
280
     0
102
RTVSPost2010PropOp28
 70
     1
102
RTVSPost2010Prop29
280
     1
102
RTVSPost2010PropOp29
 70
     1
102
RTVSPost2010Prop30
280
     1
102
RTVSPost2010PropOp30
 70
     1
102
RTVSPost2010Prop31
280
     0
102
RTVSPost2010PropOp31
 70
     1
102
RTVSPost2010Prop32
280
     0
102
RTVSPost2010PropOp32
 70
     1
102
RTVSPost2010Prop33
280
     0
102
RTVSPost2010PropOp33
 70
     1
102
RTVSPost2010Prop34
280
     0
102
RTVSPost2010PropOp34
 70
     1
102
RTVSPost2010Prop35
280
     0
102
RTVSPost2010PropOp35
 70
     1
102
RTVSPost2010Prop36
280
     0
102
RTVSPost2010PropOp36
 70
     1
102
RTVSPost2010Prop37
 90
       50
102
RTVSPost2010PropOp37
 70
     1
102
RTVSPost2010Prop38
140
0.0
102
RTVSPost2010PropOp38
 70
     1
102
RTVSPost2010Prop39
140
1.0
102
RTVSPost2010PropOp39
 70
     1
102
RTVSPost2010Prop40
 90
        0
102
RTVSPost2010PropOp40
 70
     1
102
RTVSPost2010Prop41ColorIndex
 90
       18
102
RTVSPost2010Prop41ColorRGB
 90
        0
102
RTVSPost2010PropOp41
 70
     1
102
RTVSPost2010Prop42
 90
       50
102
RTVSPost2010PropOp42
 70
     1
102
RTVSPost2010Prop43
 90
        3
102
RTVSPost2010PropOp43
 70
     1
102
RTVSPost2010Prop44ColorIndex
 90
        5
102
RTVSPost2010Prop44ColorRGB
 90
      255
102
RTVSPost2010PropOp44
 70
     1
102
RTVSPost2010Prop45
280
     0
102
RTVSPost2010PropOp45
 70
     1
102
RTVSPost2010Prop46
 90
       50
102
RTVSPost2010PropOp46
 70
     1
102
RTVSPost2010Prop47
 90
       50
102
RTVSPost2010PropOp47
 70
     1
102
RTVSPost2010Prop48
 90
       50
102
RTVSPost2010PropOp48
 70
     1
102
RTVSPost2010Prop49
280
     0
102
RTVSPost2010PropOp49
 70
     1
102
RTVSPost2010Prop50
 90
       50
102
RTVSPost2010PropOp50
 70
     1
102
RTVSPost2010Prop51ColorIndex
 90
      256
102
RTVSPost2010Prop51ColorRGB
 90
-16777216
102
RTVSPost2010PropOp51
 70
     0
102
RTVSPost2010Prop52
140
1.0
102
RTVSPost2010PropOp52
 70
     0
102
RTVSPost2010Prop53
 90
        2
102
RTVSPost2010PropOp53
 70
     1
102
RTVSPost2010Prop54
  1
strokes_ogs.tif
102
RTVSPost2010PropOp54
 70
     1
102
RTVSPost2010Prop55
280
     0
102
RTVSPost2010PropOp55
 70
     1
102
RTVSPost2010Prop56
140
1.0
102
RTVSPost2010PropOp56
 70
     1
102
RTVSPost2010Prop57
140
1.0
102
RTVSPost2010PropOp57
 70
     1
102
RTVSPropertyOp0
 70
     0
102
RTVSPropertyOp1
 70
     0
102
RTVSPropertyOp2
 70
     0
102
RTVSPropertyOp3
 70
     0
102
RTVSPropertyOp4
 70
     0
102
RTVSPropertyOp5
 70
     0
102
RTVSPropertyOp6
 70
     0
102
RTVSPropertyOp7
 70
     0
102
RTVSPropertyOp8
 70
     0
102
RTVSPropertyOp9
 70
     0
102
RTVSPropertyOp10
 70
     0
102
RTVSPropertyOp11
 70
     0
102
RTVSPropertyOp12
 70
     0
102
RTVSPropertyOp13
 70
     0
102
RTVSPropertyOp14
 70
     2
102
RTVSPropertyOp15
 70
     0
102
RTVSPropertyOp16
 70
     0
102
RTVSPropertyOp17
 70
     0
102
RTVSPropertyOp18
 70
     0
102
RTVSPropertyOp19
 70
     0
102
RTVSPropertyOp20
 70
     0
102
RTVSPropertyOp21
 70
     0
102
RTVSPropertyOp22
 70
     0
102
RTVSPropertyOp23
 70
     0
102
RTVSPropertyOp24
 70
     0
102
RTVSPropertyOp25
 70
     0
102
RTVSPropertyOp26
 70
     0
102
RTVSPropertyOp27
 70
     0
102
RTVSPropertyOp28
 70
     1
102
RTVSPropertyOp29
 70
     1
102
RTVSPropertyOp30
 70
     1
102
RTVSPropertyOp31
 70
     1
102
RTVSPropertyOp32
 70
     1
102
RTVSPropertyOp33
 70
     1
102
RTVSPropertyOp34
 70
     1
102
RTVSPropertyOp35
 70
     1
102
RTVSPropertyOp36
 70
     1
102
RTVSPropertyOp37
 70
     1
102
RTVSPropertyOp38
 70
     1
102
RTVSPropertyOp39
 70
     1
102
RTVSPropertyOp40
 70
     1
102
RTVSPropertyOp41
 70
     1
102
RTVSPropertyOp42
 70
     1
102
RTVSPropertyOp43
 70
     1
102
RTVSPropertyOp44
 70
     1
102
RTVSPropertyOp45
 70
     1
102
RTVSPropertyOp46
 70
     1
102
RTVSPropertyOp47
 70
     1
102
RTVSPropertyOp48
 70
     1
102
RTVSPropertyOp49
 70
     1
102
RTVSPropertyOp50
 70
     1
102
RTVSPropertyOp51
 70
     0
102
RTVSPropertyOp52
 70
     0
102
RTVSPropertyOp53
 70
     1
102
RTVSPropertyOp54
 70
     1
102
RTVSPropertyOp55
 70
     1
102
RTVSPropertyOp56
 70
     1
102
RTVSPropertyOp57
 70
     1
102
RTVSPropertyOp58
 70
     1
102
RTVSPropertyOp59
 70
     1
102
RTVSPropertyOp60
 70
     1
102
RTVSPropertyOp61
 70
     1
102
RTVSPropertyOp62
 70
     1
  0
XRECORD
  5
39E9
102
{ACAD_REACTORS
330
39E8
102
}
330
39E8
100
AcDbXrecord
280
     1
102
RTVSPost2010Prop28
280
     0
102
RTVSPost2010PropOp28
 70
     1
102
RTVSPost2010Prop29
280
     1
102
RTVSPost2010PropOp29
 70
     1
102
RTVSPost2010Prop30
280
     1
102
RTVSPost2010PropOp30
 70
     1
102
RTVSPost2010Prop31
280
     0
102
RTVSPost2010PropOp31
 70
     1
102
RTVSPost2010Prop32
280
     0
102
RTVSPost2010PropOp32
 70
     1
102
RTVSPost2010Prop33
280
     0
102
RTVSPost2010PropOp33
 70
     1
102
RTVSPost2010Prop34
280
     0
102
RTVSPost2010PropOp34
 70
     1
102
RTVSPost2010Prop35
280
     0
102
RTVSPost2010PropOp35
 70
     1
102
RTVSPost2010Prop36
280
     0
102
RTVSPost2010PropOp36
 70
     1
102
RTVSPost2010Prop37
 90
       50
102
RTVSPost2010PropOp37
 70
     1
102
RTVSPost2010Prop38
140
0.0
102
RTVSPost2010PropOp38
 70
     1
102
RTVSPost2010Prop39
140
1.0
102
RTVSPost2010PropOp39
 70
     1
102
RTVSPost2010Prop40
 90
        0
102
RTVSPost2010PropOp40
 70
     1
102
RTVSPost2010Prop41ColorIndex
 90
       18
102
RTVSPost2010Prop41ColorRGB
 90
        0
102
RTVSPost2010PropOp41
 70
     1
102
RTVSPost2010Prop42
 90
       50
102
RTVSPost2010PropOp42
 70
     1
102
RTVSPost2010Prop43
 90
        3
102
RTVSPost2010PropOp43
 70
     1
102
RTVSPost2010Prop44ColorIndex
 90
        5
102
RTVSPost2010Prop44ColorRGB
 90
      255
102
RTVSPost2010PropOp44
 70
     1
102
RTVSPost2010Prop45
280
     0
102
RTVSPost2010PropOp45
 70
     1
102
RTVSPost2010Prop46
 90
       50
102
RTVSPost2010PropOp46
 70
     1
102
RTVSPost2010Prop47
 90
       50
102
RTVSPost2010PropOp47
 70
     1
102
RTVSPost2010Prop48
 90
       50
102
RTVSPost2010PropOp48
 70
     1
102
RTVSPost2010Prop49
280
     0
102
RTVSPost2010PropOp49
 70
     1
102
RTVSPost2010Prop50
 90
       50
102
RTVSPost2010PropOp50
 70
     1
102
RTVSPost2010Prop51ColorIndex
 90
      256
102
RTVSPost2010Prop51ColorRGB
 90
-16777216
102
RTVSPost2010PropOp51
 70
     0
102
RTVSPost2010Prop52
140
1.0
102
RTVSPost2010PropOp52
 70
     0
102
RTVSPost2010Prop53
 90
        2
102
RTVSPost2010PropOp53
 70
     1
102
RTVSPost2010Prop54
  1
strokes_ogs.tif
102
RTVSPost2010PropOp54
 70
     1
102
RTVSPost2010Prop55
280
     0
102
RTVSPost2010PropOp55
 70
     1
102
RTVSPost2010Prop56
140
1.0
102
RTVSPost2010PropOp56
 70
     1
102
RTVSPost2010Prop57
140
1.0
102
RTVSPost2010PropOp57
 70
     1
102
RTVSPropertyOp0
 70
     1
102
RTVSPropertyOp1
 70
     1
102
RTVSPropertyOp2
 70
     1
102
RTVSPropertyOp3
 70
     1
102
RTVSPropertyOp4
 70
     1
102
RTVSPropertyOp5
 70
     1
102
RTVSPropertyOp6
 70
     1
102
RTVSPropertyOp7
 70
     1
102
RTVSPropertyOp8
 70
     1
102
RTVSPropertyOp9
 70
     1
102
RTVSPropertyOp10
 70
     1
102
RTVSPropertyOp11
 70
     1
102
RTVSPropertyOp12
 70
     1
102
RTVSPropertyOp13
 70
     1
102
RTVSPropertyOp14
 70
     1
102
RTVSPropertyOp15
 70
     1
102
RTVSPropertyOp16
 70
     1
102
RTVSPropertyOp17
 70
     1
102
RTVSPropertyOp18
 70
     1
102
RTVSPropertyOp19
 70
     1
102
RTVSPropertyOp20
 70
     1
102
RTVSPropertyOp21
 70
     1
102
RTVSPropertyOp22
 70
     1
102
RTVSPropertyOp23
 70
     1
102
RTVSPropertyOp24
 70
     1
102
RTVSPropertyOp25
 70
     1
102
RTVSPropertyOp26
 70
     1
102
RTVSPropertyOp27
 70
     1
102
RTVSPropertyOp28
 70
     1
102
RTVSPropertyOp29
 70
     1
102
RTVSPropertyOp30
 70
     1
102
RTVSPropertyOp31
 70
     1
102
RTVSPropertyOp32
 70
     1
102
RTVSPropertyOp33
 70
     1
102
RTVSPropertyOp34
 70
     1
102
RTVSPropertyOp35
 70
     1
102
RTVSPropertyOp36
 70
     1
102
RTVSPropertyOp37
 70
     1
102
RTVSPropertyOp38
 70
     1
102
RTVSPropertyOp39
 70
     1
102
RTVSPropertyOp40
 70
     1
102
RTVSPropertyOp41
 70
     1
102
RTVSPropertyOp42
 70
     1
102
RTVSPropertyOp43
 70
     1
102
RTVSPropertyOp44
 70
     1
102
RTVSPropertyOp45
 70
     1
102
RTVSPropertyOp46
 70
     1
102
RTVSPropertyOp47
 70
     1
102
RTVSPropertyOp48
 70
     1
102
RTVSPropertyOp49
 70
     1
102
RTVSPropertyOp50
 70
     1
102
RTVSPropertyOp51
 70
     0
102
RTVSPropertyOp52
 70
     0
102
RTVSPropertyOp53
 70
     1
102
RTVSPropertyOp54
 70
     1
102
RTVSPropertyOp55
 70
     1
102
RTVSPropertyOp56
 70
     1
102
RTVSPropertyOp57
 70
     1
102
RTVSPropertyOp58
 70
     1
102
RTVSPropertyOp59
 70
     1
102
RTVSPropertyOp60
 70
     1
102
RTVSPropertyOp61
 70
     1
102
RTVSPropertyOp62
 70
     1
  0
XRECORD
  5
3A07
102
{ACAD_REACTORS
330
3A06
102
}
330
3A06
100
AcDbXrecord
280
     1
102
RTVSPost2010Prop28
280
     0
102
RTVSPost2010PropOp28
 70
     1
102
RTVSPost2010Prop29
280
     1
102
RTVSPost2010PropOp29
 70
     1
102
RTVSPost2010Prop30
280
     1
102
RTVSPost2010PropOp30
 70
     1
102
RTVSPost2010Prop31
280
     0
102
RTVSPost2010PropOp31
 70
     1
102
RTVSPost2010Prop32
280
     0
102
RTVSPost2010PropOp32
 70
     1
102
RTVSPost2010Prop33
280
     0
102
RTVSPost2010PropOp33
 70
     1
102
RTVSPost2010Prop34
280
     0
102
RTVSPost2010PropOp34
 70
     1
102
RTVSPost2010Prop35
280
     0
102
RTVSPost2010PropOp35
 70
     1
102
RTVSPost2010Prop36
280
     0
102
RTVSPost2010PropOp36
 70
     1
102
RTVSPost2010Prop37
 90
       50
102
RTVSPost2010PropOp37
 70
     1
102
RTVSPost2010Prop38
140
0.0
102
RTVSPost2010PropOp38
 70
     1
102
RTVSPost2010Prop39
140
1.0
102
RTVSPost2010PropOp39
 70
     1
102
RTVSPost2010Prop40
 90
        0
102
RTVSPost2010PropOp40
 70
     1
102
RTVSPost2010Prop41ColorIndex
 90
       18
102
RTVSPost2010Prop41ColorRGB
 90
        0
102
RTVSPost2010PropOp41
 70
     1
102
RTVSPost2010Prop42
 90
       50
102
RTVSPost2010PropOp42
 70
     1
102
RTVSPost2010Prop43
 90
        3
102
RTVSPost2010PropOp43
 70
     1
102
RTVSPost2010Prop44ColorIndex
 90
        5
102
RTVSPost2010Prop44ColorRGB
 90
      255
102
RTVSPost2010PropOp44
 70
     1
102
RTVSPost2010Prop45
280
     0
102
RTVSPost2010PropOp45
 70
     1
102
RTVSPost2010Prop46
 90
       50
102
RTVSPost2010PropOp46
 70
     1
102
RTVSPost2010Prop47
 90
       50
102
RTVSPost2010PropOp47
 70
     1
102
RTVSPost2010Prop48
 90
       50
102
RTVSPost2010PropOp48
 70
     1
102
RTVSPost2010Prop49
280
     0
102
RTVSPost2010PropOp49
 70
     1
102
RTVSPost2010Prop50
 90
       50
102
RTVSPost2010PropOp50
 70
     1
102
RTVSPost2010Prop51ColorIndex
 90
      256
102
RTVSPost2010Prop51ColorRGB
 90
-16777216
102
RTVSPost2010PropOp51
 70
     0
102
RTVSPost2010Prop52
140
1.0
102
RTVSPost2010PropOp52
 70
     0
102
RTVSPost2010Prop53
 90
        2
102
RTVSPost2010PropOp53
 70
     1
102
RTVSPost2010Prop54
  1
strokes_ogs.tif
102
RTVSPost2010PropOp54
 70
     1
102
RTVSPost2010Prop55
280
     0
102
RTVSPost2010PropOp55
 70
     1
102
RTVSPost2010Prop56
140
1.0
102
RTVSPost2010PropOp56
 70
     1
102
RTVSPost2010Prop57
140
1.0
102
RTVSPost2010PropOp57
 70
     1
102
RTVSPropertyOp0
 70
     1
102
RTVSPropertyOp1
 70
     1
102
RTVSPropertyOp2
 70
     1
102
RTVSPropertyOp3
 70
     1
102
RTVSPropertyOp4
 70
     1
102
RTVSPropertyOp5
 70
     1
102
RTVSPropertyOp6
 70
     1
102
RTVSPropertyOp7
 70
     1
102
RTVSPropertyOp8
 70
     1
102
RTVSPropertyOp9
 70
     1
102
RTVSPropertyOp10
 70
     1
102
RTVSPropertyOp11
 70
     1
102
RTVSPropertyOp12
 70
     1
102
RTVSPropertyOp13
 70
     1
102
RTVSPropertyOp14
 70
     1
102
RTVSPropertyOp15
 70
     1
102
RTVSPropertyOp16
 70
     1
102
RTVSPropertyOp17
 70
     1
102
RTVSPropertyOp18
 70
     1
102
RTVSPropertyOp19
 70
     1
102
RTVSPropertyOp20
 70
     1
102
RTVSPropertyOp21
 70
     1
102
RTVSPropertyOp22
 70
     1
102
RTVSPropertyOp23
 70
     1
102
RTVSPropertyOp24
 70
     1
102
RTVSPropertyOp25
 70
     1
102
RTVSPropertyOp26
 70
     1
102
RTVSPropertyOp27
 70
     1
102
RTVSPropertyOp28
 70
     1
102
RTVSPropertyOp29
 70
     1
102
RTVSPropertyOp30
 70
     1
102
RTVSPropertyOp31
 70
     1
102
RTVSPropertyOp32
 70
     1
102
RTVSPropertyOp33
 70
     1
102
RTVSPropertyOp34
 70
     1
102
RTVSPropertyOp35
 70
     1
102
RTVSPropertyOp36
 70
     1
102
RTVSPropertyOp37
 70
     1
102
RTVSPropertyOp38
 70
     1
102
RTVSPropertyOp39
 70
     1
102
RTVSPropertyOp40
 70
     1
102
RTVSPropertyOp41
 70
     1
102
RTVSPropertyOp42
 70
     1
102
RTVSPropertyOp43
 70
     1
102
RTVSPropertyOp44
 70
     1
102
RTVSPropertyOp45
 70
     1
102
RTVSPropertyOp46
 70
     1
102
RTVSPropertyOp47
 70
     1
102
RTVSPropertyOp48
 70
     1
102
RTVSPropertyOp49
 70
     1
102
RTVSPropertyOp50
 70
     1
102
RTVSPropertyOp51
 70
     0
102
RTVSPropertyOp52
 70
     0
102
RTVSPropertyOp53
 70
     1
102
RTVSPropertyOp54
 70
     1
102
RTVSPropertyOp55
 70
     1
102
RTVSPropertyOp56
 70
     1
102
RTVSPropertyOp57
 70
     1
102
RTVSPropertyOp58
 70
     1
102
RTVSPropertyOp59
 70
     1
102
RTVSPropertyOp60
 70
     1
102
RTVSPropertyOp61
 70
     1
102
RTVSPropertyOp62
 70
     1
  0
XRECORD
  5
3A05
102
{ACAD_REACTORS
330
3A04
102
}
330
3A04
100
AcDbXrecord
280
     1
102
RTVSPost2010Prop28
280
     0
102
RTVSPost2010PropOp28
 70
     1
102
RTVSPost2010Prop29
280
     1
102
RTVSPost2010PropOp29
 70
     1
102
RTVSPost2010Prop30
280
     1
102
RTVSPost2010PropOp30
 70
     1
102
RTVSPost2010Prop31
280
     0
102
RTVSPost2010PropOp31
 70
     1
102
RTVSPost2010Prop32
280
     0
102
RTVSPost2010PropOp32
 70
     1
102
RTVSPost2010Prop33
280
     0
102
RTVSPost2010PropOp33
 70
     1
102
RTVSPost2010Prop34
280
     0
102
RTVSPost2010PropOp34
 70
     1
102
RTVSPost2010Prop35
280
     0
102
RTVSPost2010PropOp35
 70
     1
102
RTVSPost2010Prop36
280
     0
102
RTVSPost2010PropOp36
 70
     1
102
RTVSPost2010Prop37
 90
       50
102
RTVSPost2010PropOp37
 70
     1
102
RTVSPost2010Prop38
140
0.0
102
RTVSPost2010PropOp38
 70
     1
102
RTVSPost2010Prop39
140
1.0
102
RTVSPost2010PropOp39
 70
     1
102
RTVSPost2010Prop40
 90
        0
102
RTVSPost2010PropOp40
 70
     1
102
RTVSPost2010Prop41ColorIndex
 90
       18
102
RTVSPost2010Prop41ColorRGB
 90
        0
102
RTVSPost2010PropOp41
 70
     1
102
RTVSPost2010Prop42
 90
       50
102
RTVSPost2010PropOp42
 70
     1
102
RTVSPost2010Prop43
 90
        3
102
RTVSPost2010PropOp43
 70
     1
102
RTVSPost2010Prop44ColorIndex
 90
        5
102
RTVSPost2010Prop44ColorRGB
 90
      255
102
RTVSPost2010PropOp44
 70
     1
102
RTVSPost2010Prop45
280
     0
102
RTVSPost2010PropOp45
 70
     1
102
RTVSPost2010Prop46
 90
       50
102
RTVSPost2010PropOp46
 70
     1
102
RTVSPost2010Prop47
 90
       50
102
RTVSPost2010PropOp47
 70
     1
102
RTVSPost2010Prop48
 90
       50
102
RTVSPost2010PropOp48
 70
     1
102
RTVSPost2010Prop49
280
     0
102
RTVSPost2010PropOp49
 70
     1
102
RTVSPost2010Prop50
 90
       50
102
RTVSPost2010PropOp50
 70
     1
102
RTVSPost2010Prop51ColorIndex
 90
      256
102
RTVSPost2010Prop51ColorRGB
 90
-16777216
102
RTVSPost2010PropOp51
 70
     0
102
RTVSPost2010Prop52
140
1.0
102
RTVSPost2010PropOp52
 70
     0
102
RTVSPost2010Prop53
 90
        2
102
RTVSPost2010PropOp53
 70
     1
102
RTVSPost2010Prop54
  1
strokes_ogs.tif
102
RTVSPost2010PropOp54
 70
     1
102
RTVSPost2010Prop55
280
     0
102
RTVSPost2010PropOp55
 70
     1
102
RTVSPost2010Prop56
140
1.0
102
RTVSPost2010PropOp56
 70
     1
102
RTVSPost2010Prop57
140
1.0
102
RTVSPost2010PropOp57
 70
     1
102
RTVSPropertyOp0
 70
     1
102
RTVSPropertyOp1
 70
     1
102
RTVSPropertyOp2
 70
     1
102
RTVSPropertyOp3
 70
     1
102
RTVSPropertyOp4
 70
     1
102
RTVSPropertyOp5
 70
     1
102
RTVSPropertyOp6
 70
     1
102
RTVSPropertyOp7
 70
     1
102
RTVSPropertyOp8
 70
     1
102
RTVSPropertyOp9
 70
     1
102
RTVSPropertyOp10
 70
     1
102
RTVSPropertyOp11
 70
     1
102
RTVSPropertyOp12
 70
     1
102
RTVSPropertyOp13
 70
     1
102
RTVSPropertyOp14
 70
     1
102
RTVSPropertyOp15
 70
     1
102
RTVSPropertyOp16
 70
     1
102
RTVSPropertyOp17
 70
     1
102
RTVSPropertyOp18
 70
     1
102
RTVSPropertyOp19
 70
     1
102
RTVSPropertyOp20
 70
     1
102
RTVSPropertyOp21
 70
     1
102
RTVSPropertyOp22
 70
     1
102
RTVSPropertyOp23
 70
     1
102
RTVSPropertyOp24
 70
     1
102
RTVSPropertyOp25
 70
     1
102
RTVSPropertyOp26
 70
     1
102
RTVSPropertyOp27
 70
     1
102
RTVSPropertyOp28
 70
     1
102
RTVSPropertyOp29
 70
     1
102
RTVSPropertyOp30
 70
     1
102
RTVSPropertyOp31
 70
     1
102
RTVSPropertyOp32
 70
     1
102
RTVSPropertyOp33
 70
     1
102
RTVSPropertyOp34
 70
     1
102
RTVSPropertyOp35
 70
     1
102
RTVSPropertyOp36
 70
     1
102
RTVSPropertyOp37
 70
     1
102
RTVSPropertyOp38
 70
     1
102
RTVSPropertyOp39
 70
     1
102
RTVSPropertyOp40
 70
     1
102
RTVSPropertyOp41
 70
     1
102
RTVSPropertyOp42
 70
     1
102
RTVSPropertyOp43
 70
     1
102
RTVSPropertyOp44
 70
     1
102
RTVSPropertyOp45
 70
     1
102
RTVSPropertyOp46
 70
     1
102
RTVSPropertyOp47
 70
     1
102
RTVSPropertyOp48
 70
     1
102
RTVSPropertyOp49
 70
     1
102
RTVSPropertyOp50
 70
     1
102
RTVSPropertyOp51
 70
     0
102
RTVSPropertyOp52
 70
     0
102
RTVSPropertyOp53
 70
     1
102
RTVSPropertyOp54
 70
     1
102
RTVSPropertyOp55
 70
     1
102
RTVSPropertyOp56
 70
     1
102
RTVSPropertyOp57
 70
     1
102
RTVSPropertyOp58
 70
     1
102
RTVSPropertyOp59
 70
     1
102
RTVSPropertyOp60
 70
     1
102
RTVSPropertyOp61
 70
     1
102
RTVSPropertyOp62
 70
     1
  0
XRECORD
  5
39FF
102
{ACAD_REACTORS
330
39FE
102
}
330
39FE
100
AcDbXrecord
280
     1
102
RTVSPost2010Prop28
280
     0
102
RTVSPost2010PropOp28
 70
     1
102
RTVSPost2010Prop29
280
     1
102
RTVSPost2010PropOp29
 70
     1
102
RTVSPost2010Prop30
280
     1
102
RTVSPost2010PropOp30
 70
     1
102
RTVSPost2010Prop31
280
     0
102
RTVSPost2010PropOp31
 70
     1
102
RTVSPost2010Prop32
280
     0
102
RTVSPost2010PropOp32
 70
     1
102
RTVSPost2010Prop33
280
     0
102
RTVSPost2010PropOp33
 70
     1
102
RTVSPost2010Prop34
280
     0
102
RTVSPost2010PropOp34
 70
     1
102
RTVSPost2010Prop35
280
     0
102
RTVSPost2010PropOp35
 70
     1
102
RTVSPost2010Prop36
280
     0
102
RTVSPost2010PropOp36
 70
     1
102
RTVSPost2010Prop37
 90
       50
102
RTVSPost2010PropOp37
 70
     1
102
RTVSPost2010Prop38
140
0.0
102
RTVSPost2010PropOp38
 70
     1
102
RTVSPost2010Prop39
140
1.0
102
RTVSPost2010PropOp39
 70
     1
102
RTVSPost2010Prop40
 90
        0
102
RTVSPost2010PropOp40
 70
     1
102
RTVSPost2010Prop41ColorIndex
 90
       18
102
RTVSPost2010Prop41ColorRGB
 90
        0
102
RTVSPost2010PropOp41
 70
     1
102
RTVSPost2010Prop42
 90
       50
102
RTVSPost2010PropOp42
 70
     1
102
RTVSPost2010Prop43
 90
        3
102
RTVSPost2010PropOp43
 70
     1
102
RTVSPost2010Prop44ColorIndex
 90
        5
102
RTVSPost2010Prop44ColorRGB
 90
      255
102
RTVSPost2010PropOp44
 70
     1
102
RTVSPost2010Prop45
280
     0
102
RTVSPost2010PropOp45
 70
     1
102
RTVSPost2010Prop46
 90
       50
102
RTVSPost2010PropOp46
 70
     1
102
RTVSPost2010Prop47
 90
       50
102
RTVSPost2010PropOp47
 70
     1
102
RTVSPost2010Prop48
 90
       50
102
RTVSPost2010PropOp48
 70
     1
102
RTVSPost2010Prop49
280
     0
102
RTVSPost2010PropOp49
 70
     1
102
RTVSPost2010Prop50
 90
       50
102
RTVSPost2010PropOp50
 70
     1
102
RTVSPost2010Prop51ColorIndex
 90
      256
102
RTVSPost2010Prop51ColorRGB
 90
-16777216
102
RTVSPost2010PropOp51
 70
     0
102
RTVSPost2010Prop52
140
1.0
102
RTVSPost2010PropOp52
 70
     0
102
RTVSPost2010Prop53
 90
        2
102
RTVSPost2010PropOp53
 70
     1
102
RTVSPost2010Prop54
  1
strokes_ogs.tif
102
RTVSPost2010PropOp54
 70
     1
102
RTVSPost2010Prop55
280
     0
102
RTVSPost2010PropOp55
 70
     1
102
RTVSPost2010Prop56
140
1.0
102
RTVSPost2010PropOp56
 70
     1
102
RTVSPost2010Prop57
140
1.0
102
RTVSPost2010PropOp57
 70
     1
102
RTVSPropertyOp0
 70
     1
102
RTVSPropertyOp1
 70
     1
102
RTVSPropertyOp2
 70
     1
102
RTVSPropertyOp3
 70
     1
102
RTVSPropertyOp4
 70
     1
102
RTVSPropertyOp5
 70
     1
102
RTVSPropertyOp6
 70
     1
102
RTVSPropertyOp7
 70
     1
102
RTVSPropertyOp8
 70
     1
102
RTVSPropertyOp9
 70
     1
102
RTVSPropertyOp10
 70
     1
102
RTVSPropertyOp11
 70
     1
102
RTVSPropertyOp12
 70
     1
102
RTVSPropertyOp13
 70
     1
102
RTVSPropertyOp14
 70
     1
102
RTVSPropertyOp15
 70
     1
102
RTVSPropertyOp16
 70
     1
102
RTVSPropertyOp17
 70
     1
102
RTVSPropertyOp18
 70
     1
102
RTVSPropertyOp19
 70
     1
102
RTVSPropertyOp20
 70
     1
102
RTVSPropertyOp21
 70
     1
102
RTVSPropertyOp22
 70
     1
102
RTVSPropertyOp23
 70
     1
102
RTVSPropertyOp24
 70
     1
102
RTVSPropertyOp25
 70
     1
102
RTVSPropertyOp26
 70
     1
102
RTVSPropertyOp27
 70
     1
102
RTVSPropertyOp28
 70
     1
102
RTVSPropertyOp29
 70
     1
102
RTVSPropertyOp30
 70
     1
102
RTVSPropertyOp31
 70
     1
102
RTVSPropertyOp32
 70
     1
102
RTVSPropertyOp33
 70
     1
102
RTVSPropertyOp34
 70
     1
102
RTVSPropertyOp35
 70
     1
102
RTVSPropertyOp36
 70
     1
102
RTVSPropertyOp37
 70
     1
102
RTVSPropertyOp38
 70
     1
102
RTVSPropertyOp39
 70
     1
102
RTVSPropertyOp40
 70
     1
102
RTVSPropertyOp41
 70
     1
102
RTVSPropertyOp42
 70
     1
102
RTVSPropertyOp43
 70
     1
102
RTVSPropertyOp44
 70
     1
102
RTVSPropertyOp45
 70
     1
102
RTVSPropertyOp46
 70
     1
102
RTVSPropertyOp47
 70
     1
102
RTVSPropertyOp48
 70
     1
102
RTVSPropertyOp49
 70
     1
102
RTVSPropertyOp50
 70
     1
102
RTVSPropertyOp51
 70
     0
102
RTVSPropertyOp52
 70
     0
102
RTVSPropertyOp53
 70
     1
102
RTVSPropertyOp54
 70
     1
102
RTVSPropertyOp55
 70
     1
102
RTVSPropertyOp56
 70
     1
102
RTVSPropertyOp57
 70
     1
102
RTVSPropertyOp58
 70
     1
102
RTVSPropertyOp59
 70
     1
102
RTVSPropertyOp60
 70
     1
102
RTVSPropertyOp61
 70
     1
102
RTVSPropertyOp62
 70
     1
  0
XRECORD
  5
3A01
102
{ACAD_REACTORS
330
3A00
102
}
330
3A00
100
AcDbXrecord
280
     1
102
RTVSPost2010Prop28
280
     0
102
RTVSPost2010PropOp28
 70
     1
102
RTVSPost2010Prop29
280
     1
102
RTVSPost2010PropOp29
 70
     1
102
RTVSPost2010Prop30
280
     1
102
RTVSPost2010PropOp30
 70
     1
102
RTVSPost2010Prop31
280
     0
102
RTVSPost2010PropOp31
 70
     1
102
RTVSPost2010Prop32
280
     0
102
RTVSPost2010PropOp32
 70
     1
102
RTVSPost2010Prop33
280
     0
102
RTVSPost2010PropOp33
 70
     1
102
RTVSPost2010Prop34
280
     0
102
RTVSPost2010PropOp34
 70
     1
102
RTVSPost2010Prop35
280
     0
102
RTVSPost2010PropOp35
 70
     1
102
RTVSPost2010Prop36
280
     0
102
RTVSPost2010PropOp36
 70
     1
102
RTVSPost2010Prop37
 90
       50
102
RTVSPost2010PropOp37
 70
     1
102
RTVSPost2010Prop38
140
0.0
102
RTVSPost2010PropOp38
 70
     1
102
RTVSPost2010Prop39
140
1.0
102
RTVSPost2010PropOp39
 70
     1
102
RTVSPost2010Prop40
 90
        0
102
RTVSPost2010PropOp40
 70
     1
102
RTVSPost2010Prop41ColorIndex
 90
       18
102
RTVSPost2010Prop41ColorRGB
 90
        0
102
RTVSPost2010PropOp41
 70
     1
102
RTVSPost2010Prop42
 90
       50
102
RTVSPost2010PropOp42
 70
     1
102
RTVSPost2010Prop43
 90
        3
102
RTVSPost2010PropOp43
 70
     1
102
RTVSPost2010Prop44ColorIndex
 90
        5
102
RTVSPost2010Prop44ColorRGB
 90
      255
102
RTVSPost2010PropOp44
 70
     1
102
RTVSPost2010Prop45
280
     0
102
RTVSPost2010PropOp45
 70
     1
102
RTVSPost2010Prop46
 90
       50
102
RTVSPost2010PropOp46
 70
     1
102
RTVSPost2010Prop47
 90
       50
102
RTVSPost2010PropOp47
 70
     1
102
RTVSPost2010Prop48
 90
       50
102
RTVSPost2010PropOp48
 70
     1
102
RTVSPost2010Prop49
280
     0
102
RTVSPost2010PropOp49
 70
     1
102
RTVSPost2010Prop50
 90
       50
102
RTVSPost2010PropOp50
 70
     1
102
RTVSPost2010Prop51ColorIndex
 90
      256
102
RTVSPost2010Prop51ColorRGB
 90
-16777216
102
RTVSPost2010PropOp51
 70
     0
102
RTVSPost2010Prop52
140
1.0
102
RTVSPost2010PropOp52
 70
     0
102
RTVSPost2010Prop53
 90
        2
102
RTVSPost2010PropOp53
 70
     1
102
RTVSPost2010Prop54
  1
strokes_ogs.tif
102
RTVSPost2010PropOp54
 70
     1
102
RTVSPost2010Prop55
280
     0
102
RTVSPost2010PropOp55
 70
     1
102
RTVSPost2010Prop56
140
1.0
102
RTVSPost2010PropOp56
 70
     1
102
RTVSPost2010Prop57
140
1.0
102
RTVSPost2010PropOp57
 70
     1
102
RTVSPropertyOp0
 70
     1
102
RTVSPropertyOp1
 70
     1
102
RTVSPropertyOp2
 70
     1
102
RTVSPropertyOp3
 70
     1
102
RTVSPropertyOp4
 70
     1
102
RTVSPropertyOp5
 70
     1
102
RTVSPropertyOp6
 70
     1
102
RTVSPropertyOp7
 70
     1
102
RTVSPropertyOp8
 70
     1
102
RTVSPropertyOp9
 70
     1
102
RTVSPropertyOp10
 70
     1
102
RTVSPropertyOp11
 70
     1
102
RTVSPropertyOp12
 70
     1
102
RTVSPropertyOp13
 70
     1
102
RTVSPropertyOp14
 70
     1
102
RTVSPropertyOp15
 70
     1
102
RTVSPropertyOp16
 70
     1
102
RTVSPropertyOp17
 70
     1
102
RTVSPropertyOp18
 70
     1
102
RTVSPropertyOp19
 70
     1
102
RTVSPropertyOp20
 70
     1
102
RTVSPropertyOp21
 70
     1
102
RTVSPropertyOp22
 70
     1
102
RTVSPropertyOp23
 70
     1
102
RTVSPropertyOp24
 70
     1
102
RTVSPropertyOp25
 70
     1
102
RTVSPropertyOp26
 70
     1
102
RTVSPropertyOp27
 70
     1
102
RTVSPropertyOp28
 70
     1
102
RTVSPropertyOp29
 70
     1
102
RTVSPropertyOp30
 70
     1
102
RTVSPropertyOp31
 70
     1
102
RTVSPropertyOp32
 70
     1
102
RTVSPropertyOp33
 70
     1
102
RTVSPropertyOp34
 70
     1
102
RTVSPropertyOp35
 70
     1
102
RTVSPropertyOp36
 70
     1
102
RTVSPropertyOp37
 70
     1
102
RTVSPropertyOp38
 70
     1
102
RTVSPropertyOp39
 70
     1
102
RTVSPropertyOp40
 70
     1
102
RTVSPropertyOp41
 70
     1
102
RTVSPropertyOp42
 70
     1
102
RTVSPropertyOp43
 70
     1
102
RTVSPropertyOp44
 70
     1
102
RTVSPropertyOp45
 70
     1
102
RTVSPropertyOp46
 70
     1
102
RTVSPropertyOp47
 70
     1
102
RTVSPropertyOp48
 70
     1
102
RTVSPropertyOp49
 70
     1
102
RTVSPropertyOp50
 70
     1
102
RTVSPropertyOp51
 70
     0
102
RTVSPropertyOp52
 70
     0
102
RTVSPropertyOp53
 70
     1
102
RTVSPropertyOp54
 70
     1
102
RTVSPropertyOp55
 70
     1
102
RTVSPropertyOp56
 70
     1
102
RTVSPropertyOp57
 70
     1
102
RTVSPropertyOp58
 70
     1
102
RTVSPropertyOp59
 70
     1
102
RTVSPropertyOp60
 70
     1
102
RTVSPropertyOp61
 70
     1
102
RTVSPropertyOp62
 70
     1
  0
XRECORD
  5
39EF
102
{ACAD_REACTORS
330
39EE
102
}
330
39EE
100
AcDbXrecord
280
     1
102
RTVSPost2010Prop28
280
     0
102
RTVSPost2010PropOp28
 70
     1
102
RTVSPost2010Prop29
280
     1
102
RTVSPost2010PropOp29
 70
     1
102
RTVSPost2010Prop30
280
     1
102
RTVSPost2010PropOp30
 70
     1
102
RTVSPost2010Prop31
280
     0
102
RTVSPost2010PropOp31
 70
     1
102
RTVSPost2010Prop32
280
     0
102
RTVSPost2010PropOp32
 70
     1
102
RTVSPost2010Prop33
280
     0
102
RTVSPost2010PropOp33
 70
     1
102
RTVSPost2010Prop34
280
     0
102
RTVSPost2010PropOp34
 70
     1
102
RTVSPost2010Prop35
280
     0
102
RTVSPost2010PropOp35
 70
     1
102
RTVSPost2010Prop36
280
     0
102
RTVSPost2010PropOp36
 70
     1
102
RTVSPost2010Prop37
 90
       50
102
RTVSPost2010PropOp37
 70
     1
102
RTVSPost2010Prop38
140
0.0
102
RTVSPost2010PropOp38
 70
     1
102
RTVSPost2010Prop39
140
1.0
102
RTVSPost2010PropOp39
 70
     1
102
RTVSPost2010Prop40
 90
        0
102
RTVSPost2010PropOp40
 70
     1
102
RTVSPost2010Prop41ColorIndex
 90
       18
102
RTVSPost2010Prop41ColorRGB
 90
        0
102
RTVSPost2010PropOp41
 70
     1
102
RTVSPost2010Prop42
 90
       50
102
RTVSPost2010PropOp42
 70
     1
102
RTVSPost2010Prop43
 90
        3
102
RTVSPost2010PropOp43
 70
     1
102
RTVSPost2010Prop44ColorIndex
 90
        5
102
RTVSPost2010Prop44ColorRGB
 90
      255
102
RTVSPost2010PropOp44
 70
     1
102
RTVSPost2010Prop45
280
     0
102
RTVSPost2010PropOp45
 70
     1
102
RTVSPost2010Prop46
 90
       50
102
RTVSPost2010PropOp46
 70
     1
102
RTVSPost2010Prop47
 90
       50
102
RTVSPost2010PropOp47
 70
     1
102
RTVSPost2010Prop48
 90
       50
102
RTVSPost2010PropOp48
 70
     1
102
RTVSPost2010Prop49
280
     0
102
RTVSPost2010PropOp49
 70
     1
102
RTVSPost2010Prop50
 90
       50
102
RTVSPost2010PropOp50
 70
     1
102
RTVSPost2010Prop51ColorIndex
 90
      256
102
RTVSPost2010Prop51ColorRGB
 90
-16777216
102
RTVSPost2010PropOp51
 70
     0
102
RTVSPost2010Prop52
140
1.0
102
RTVSPost2010PropOp52
 70
     0
102
RTVSPost2010Prop53
 90
        2
102
RTVSPost2010PropOp53
 70
     1
102
RTVSPost2010Prop54
  1
strokes_ogs.tif
102
RTVSPost2010PropOp54
 70
     1
102
RTVSPost2010Prop55
280
     0
102
RTVSPost2010PropOp55
 70
     1
102
RTVSPost2010Prop56
140
1.0
102
RTVSPost2010PropOp56
 70
     1
102
RTVSPost2010Prop57
140
1.0
102
RTVSPost2010PropOp57
 70
     1
102
RTVSPropertyOp0
 70
     1
102
RTVSPropertyOp1
 70
     1
102
RTVSPropertyOp2
 70
     1
102
RTVSPropertyOp3
 70
     1
102
RTVSPropertyOp4
 70
     1
102
RTVSPropertyOp5
 70
     1
102
RTVSPropertyOp6
 70
     1
102
RTVSPropertyOp7
 70
     1
102
RTVSPropertyOp8
 70
     1
102
RTVSPropertyOp9
 70
     1
102
RTVSPropertyOp10
 70
     1
102
RTVSPropertyOp11
 70
     1
102
RTVSPropertyOp12
 70
     1
102
RTVSPropertyOp13
 70
     1
102
RTVSPropertyOp14
 70
     1
102
RTVSPropertyOp15
 70
     1
102
RTVSPropertyOp16
 70
     1
102
RTVSPropertyOp17
 70
     1
102
RTVSPropertyOp18
 70
     1
102
RTVSPropertyOp19
 70
     1
102
RTVSPropertyOp20
 70
     1
102
RTVSPropertyOp21
 70
     1
102
RTVSPropertyOp22
 70
     1
102
RTVSPropertyOp23
 70
     1
102
RTVSPropertyOp24
 70
     1
102
RTVSPropertyOp25
 70
     1
102
RTVSPropertyOp26
 70
     1
102
RTVSPropertyOp27
 70
     1
102
RTVSPropertyOp28
 70
     1
102
RTVSPropertyOp29
 70
     1
102
RTVSPropertyOp30
 70
     1
102
RTVSPropertyOp31
 70
     1
102
RTVSPropertyOp32
 70
     1
102
RTVSPropertyOp33
 70
     1
102
RTVSPropertyOp34
 70
     1
102
RTVSPropertyOp35
 70
     1
102
RTVSPropertyOp36
 70
     1
102
RTVSPropertyOp37
 70
     1
102
RTVSPropertyOp38
 70
     1
102
RTVSPropertyOp39
 70
     1
102
RTVSPropertyOp40
 70
     1
102
RTVSPropertyOp41
 70
     1
102
RTVSPropertyOp42
 70
     1
102
RTVSPropertyOp43
 70
     1
102
RTVSPropertyOp44
 70
     1
102
RTVSPropertyOp45
 70
     1
102
RTVSPropertyOp46
 70
     1
102
RTVSPropertyOp47
 70
     1
102
RTVSPropertyOp48
 70
     1
102
RTVSPropertyOp49
 70
     1
102
RTVSPropertyOp50
 70
     1
102
RTVSPropertyOp51
 70
     0
102
RTVSPropertyOp52
 70
     0
102
RTVSPropertyOp53
 70
     1
102
RTVSPropertyOp54
 70
     1
102
RTVSPropertyOp55
 70
     1
102
RTVSPropertyOp56
 70
     1
102
RTVSPropertyOp57
 70
     1
102
RTVSPropertyOp58
 70
     1
102
RTVSPropertyOp59
 70
     1
102
RTVSPropertyOp60
 70
     1
102
RTVSPropertyOp61
 70
     1
102
RTVSPropertyOp62
 70
     1
  0
XRECORD
  5
39E3
102
{ACAD_REACTORS
330
39E2
102
}
330
39E2
100
AcDbXrecord
280
     1
102
RTVSPost2010Prop28
280
     0
102
RTVSPost2010PropOp28
 70
     1
102
RTVSPost2010Prop29
280
     1
102
RTVSPost2010PropOp29
 70
     1
102
RTVSPost2010Prop30
280
     1
102
RTVSPost2010PropOp30
 70
     1
102
RTVSPost2010Prop31
280
     0
102
RTVSPost2010PropOp31
 70
     1
102
RTVSPost2010Prop32
280
     0
102
RTVSPost2010PropOp32
 70
     1
102
RTVSPost2010Prop33
280
     0
102
RTVSPost2010PropOp33
 70
     1
102
RTVSPost2010Prop34
280
     0
102
RTVSPost2010PropOp34
 70
     1
102
RTVSPost2010Prop35
280
     0
102
RTVSPost2010PropOp35
 70
     1
102
RTVSPost2010Prop36
280
     0
102
RTVSPost2010PropOp36
 70
     1
102
RTVSPost2010Prop37
 90
       50
102
RTVSPost2010PropOp37
 70
     1
102
RTVSPost2010Prop38
140
0.0
102
RTVSPost2010PropOp38
 70
     1
102
RTVSPost2010Prop39
140
1.0
102
RTVSPost2010PropOp39
 70
     1
102
RTVSPost2010Prop40
 90
        0
102
RTVSPost2010PropOp40
 70
     1
102
RTVSPost2010Prop41ColorIndex
 90
       18
102
RTVSPost2010Prop41ColorRGB
 90
        0
102
RTVSPost2010PropOp41
 70
     1
102
RTVSPost2010Prop42
 90
       50
102
RTVSPost2010PropOp42
 70
     1
102
RTVSPost2010Prop43
 90
        3
102
RTVSPost2010PropOp43
 70
     1
102
RTVSPost2010Prop44ColorIndex
 90
        5
102
RTVSPost2010Prop44ColorRGB
 90
      255
102
RTVSPost2010PropOp44
 70
     1
102
RTVSPost2010Prop45
280
     0
102
RTVSPost2010PropOp45
 70
     1
102
RTVSPost2010Prop46
 90
       50
102
RTVSPost2010PropOp46
 70
     1
102
RTVSPost2010Prop47
 90
       50
102
RTVSPost2010PropOp47
 70
     1
102
RTVSPost2010Prop48
 90
       50
102
RTVSPost2010PropOp48
 70
     1
102
RTVSPost2010Prop49
280
     0
102
RTVSPost2010PropOp49
 70
     1
102
RTVSPost2010Prop50
 90
       50
102
RTVSPost2010PropOp50
 70
     1
102
RTVSPost2010Prop51ColorIndex
 90
      256
102
RTVSPost2010Prop51ColorRGB
 90
-16777216
102
RTVSPost2010PropOp51
 70
     0
102
RTVSPost2010Prop52
140
1.0
102
RTVSPost2010PropOp52
 70
     0
102
RTVSPost2010Prop53
 90
        2
102
RTVSPost2010PropOp53
 70
     1
102
RTVSPost2010Prop54
  1
strokes_ogs.tif
102
RTVSPost2010PropOp54
 70
     1
102
RTVSPost2010Prop55
280
     0
102
RTVSPost2010PropOp55
 70
     1
102
RTVSPost2010Prop56
140
1.0
102
RTVSPost2010PropOp56
 70
     1
102
RTVSPost2010Prop57
140
1.0
102
RTVSPost2010PropOp57
 70
     1
102
RTVSPropertyOp0
 70
     1
102
RTVSPropertyOp1
 70
     1
102
RTVSPropertyOp2
 70
     1
102
RTVSPropertyOp3
 70
     1
102
RTVSPropertyOp4
 70
     1
102
RTVSPropertyOp5
 70
     1
102
RTVSPropertyOp6
 70
     1
102
RTVSPropertyOp7
 70
     1
102
RTVSPropertyOp8
 70
     1
102
RTVSPropertyOp9
 70
     1
102
RTVSPropertyOp10
 70
     1
102
RTVSPropertyOp11
 70
     1
102
RTVSPropertyOp12
 70
     1
102
RTVSPropertyOp13
 70
     1
102
RTVSPropertyOp14
 70
     1
102
RTVSPropertyOp15
 70
     1
102
RTVSPropertyOp16
 70
     1
102
RTVSPropertyOp17
 70
     1
102
RTVSPropertyOp18
 70
     1
102
RTVSPropertyOp19
 70
     1
102
RTVSPropertyOp20
 70
     1
102
RTVSPropertyOp21
 70
     1
102
RTVSPropertyOp22
 70
     1
102
RTVSPropertyOp23
 70
     1
102
RTVSPropertyOp24
 70
     1
102
RTVSPropertyOp25
 70
     1
102
RTVSPropertyOp26
 70
     1
102
RTVSPropertyOp27
 70
     1
102
RTVSPropertyOp28
 70
     1
102
RTVSPropertyOp29
 70
     1
102
RTVSPropertyOp30
 70
     1
102
RTVSPropertyOp31
 70
     1
102
RTVSPropertyOp32
 70
     1
102
RTVSPropertyOp33
 70
     1
102
RTVSPropertyOp34
 70
     1
102
RTVSPropertyOp35
 70
     1
102
RTVSPropertyOp36
 70
     1
102
RTVSPropertyOp37
 70
     1
102
RTVSPropertyOp38
 70
     1
102
RTVSPropertyOp39
 70
     1
102
RTVSPropertyOp40
 70
     1
102
RTVSPropertyOp41
 70
     1
102
RTVSPropertyOp42
 70
     1
102
RTVSPropertyOp43
 70
     1
102
RTVSPropertyOp44
 70
     1
102
RTVSPropertyOp45
 70
     1
102
RTVSPropertyOp46
 70
     1
102
RTVSPropertyOp47
 70
     1
102
RTVSPropertyOp48
 70
     1
102
RTVSPropertyOp49
 70
     1
102
RTVSPropertyOp50
 70
     1
102
RTVSPropertyOp51
 70
     0
102
RTVSPropertyOp52
 70
     0
102
RTVSPropertyOp53
 70
     1
102
RTVSPropertyOp54
 70
     1
102
RTVSPropertyOp55
 70
     1
102
RTVSPropertyOp56
 70
     1
102
RTVSPropertyOp57
 70
     1
102
RTVSPropertyOp58
 70
     1
102
RTVSPropertyOp59
 70
     1
102
RTVSPropertyOp60
 70
     1
102
RTVSPropertyOp61
 70
     1
102
RTVSPropertyOp62
 70
     1
  0
XRECORD
  5
3A03
102
{ACAD_REACTORS
330
3A02
102
}
330
3A02
100
AcDbXrecord
280
     1
102
RTVSPost2010Prop28
280
     0
102
RTVSPost2010PropOp28
 70
     1
102
RTVSPost2010Prop29
280
     1
102
RTVSPost2010PropOp29
 70
     1
102
RTVSPost2010Prop30
280
     1
102
RTVSPost2010PropOp30
 70
     1
102
RTVSPost2010Prop31
280
     0
102
RTVSPost2010PropOp31
 70
     1
102
RTVSPost2010Prop32
280
     0
102
RTVSPost2010PropOp32
 70
     1
102
RTVSPost2010Prop33
280
     0
102
RTVSPost2010PropOp33
 70
     1
102
RTVSPost2010Prop34
280
     0
102
RTVSPost2010PropOp34
 70
     1
102
RTVSPost2010Prop35
280
     0
102
RTVSPost2010PropOp35
 70
     1
102
RTVSPost2010Prop36
280
     0
102
RTVSPost2010PropOp36
 70
     1
102
RTVSPost2010Prop37
 90
       50
102
RTVSPost2010PropOp37
 70
     1
102
RTVSPost2010Prop38
140
0.0
102
RTVSPost2010PropOp38
 70
     1
102
RTVSPost2010Prop39
140
1.0
102
RTVSPost2010PropOp39
 70
     1
102
RTVSPost2010Prop40
 90
        0
102
RTVSPost2010PropOp40
 70
     1
102
RTVSPost2010Prop41ColorIndex
 90
       18
102
RTVSPost2010Prop41ColorRGB
 90
        0
102
RTVSPost2010PropOp41
 70
     1
102
RTVSPost2010Prop42
 90
       50
102
RTVSPost2010PropOp42
 70
     1
102
RTVSPost2010Prop43
 90
        3
102
RTVSPost2010PropOp43
 70
     1
102
RTVSPost2010Prop44ColorIndex
 90
        5
102
RTVSPost2010Prop44ColorRGB
 90
      255
102
RTVSPost2010PropOp44
 70
     1
102
RTVSPost2010Prop45
280
     0
102
RTVSPost2010PropOp45
 70
     1
102
RTVSPost2010Prop46
 90
       50
102
RTVSPost2010PropOp46
 70
     1
102
RTVSPost2010Prop47
 90
       50
102
RTVSPost2010PropOp47
 70
     1
102
RTVSPost2010Prop48
 90
       50
102
RTVSPost2010PropOp48
 70
     1
102
RTVSPost2010Prop49
280
     0
102
RTVSPost2010PropOp49
 70
     1
102
RTVSPost2010Prop50
 90
       50
102
RTVSPost2010PropOp50
 70
     1
102
RTVSPost2010Prop51ColorIndex
 90
      256
102
RTVSPost2010Prop51ColorRGB
 90
-16777216
102
RTVSPost2010PropOp51
 70
     0
102
RTVSPost2010Prop52
140
1.0
102
RTVSPost2010PropOp52
 70
     0
102
RTVSPost2010Prop53
 90
        2
102
RTVSPost2010PropOp53
 70
     1
102
RTVSPost2010Prop54
  1
strokes_ogs.tif
102
RTVSPost2010PropOp54
 70
     1
102
RTVSPost2010Prop55
280
     0
102
RTVSPost2010PropOp55
 70
     1
102
RTVSPost2010Prop56
140
1.0
102
RTVSPost2010PropOp56
 70
     1
102
RTVSPost2010Prop57
140
1.0
102
RTVSPost2010PropOp57
 70
     1
102
RTVSPropertyOp0
 70
     1
102
RTVSPropertyOp1
 70
     1
102
RTVSPropertyOp2
 70
     1
102
RTVSPropertyOp3
 70
     1
102
RTVSPropertyOp4
 70
     1
102
RTVSPropertyOp5
 70
     1
102
RTVSPropertyOp6
 70
     1
102
RTVSPropertyOp7
 70
     1
102
RTVSPropertyOp8
 70
     1
102
RTVSPropertyOp9
 70
     1
102
RTVSPropertyOp10
 70
     1
102
RTVSPropertyOp11
 70
     1
102
RTVSPropertyOp12
 70
     1
102
RTVSPropertyOp13
 70
     1
102
RTVSPropertyOp14
 70
     1
102
RTVSPropertyOp15
 70
     1
102
RTVSPropertyOp16
 70
     1
102
RTVSPropertyOp17
 70
     1
102
RTVSPropertyOp18
 70
     1
102
RTVSPropertyOp19
 70
     1
102
RTVSPropertyOp20
 70
     1
102
RTVSPropertyOp21
 70
     1
102
RTVSPropertyOp22
 70
     1
102
RTVSPropertyOp23
 70
     1
102
RTVSPropertyOp24
 70
     1
102
RTVSPropertyOp25
 70
     1
102
RTVSPropertyOp26
 70
     1
102
RTVSPropertyOp27
 70
     1
102
RTVSPropertyOp28
 70
     1
102
RTVSPropertyOp29
 70
     1
102
RTVSPropertyOp30
 70
     1
102
RTVSPropertyOp31
 70
     1
102
RTVSPropertyOp32
 70
     1
102
RTVSPropertyOp33
 70
     1
102
RTVSPropertyOp34
 70
     1
102
RTVSPropertyOp35
 70
     1
102
RTVSPropertyOp36
 70
     1
102
RTVSPropertyOp37
 70
     1
102
RTVSPropertyOp38
 70
     1
102
RTVSPropertyOp39
 70
     1
102
RTVSPropertyOp40
 70
     1
102
RTVSPropertyOp41
 70
     1
102
RTVSPropertyOp42
 70
     1
102
RTVSPropertyOp43
 70
     1
102
RTVSPropertyOp44
 70
     1
102
RTVSPropertyOp45
 70
     1
102
RTVSPropertyOp46
 70
     1
102
RTVSPropertyOp47
 70
     1
102
RTVSPropertyOp48
 70
     1
102
RTVSPropertyOp49
 70
     1
102
RTVSPropertyOp50
 70
     1
102
RTVSPropertyOp51
 70
     0
102
RTVSPropertyOp52
 70
     0
102
RTVSPropertyOp53
 70
     1
102
RTVSPropertyOp54
 70
     1
102
RTVSPropertyOp55
 70
     1
102
RTVSPropertyOp56
 70
     1
102
RTVSPropertyOp57
 70
     1
102
RTVSPropertyOp58
 70
     1
102
RTVSPropertyOp59
 70
     1
102
RTVSPropertyOp60
 70
     1
102
RTVSPropertyOp61
 70
     1
102
RTVSPropertyOp62
 70
     1
  0
ENDSEC
  0
EOF
